The Moonkrackers - Broken Glass Chords & Tabs

 

Broken Glass Chords & Tabs

The Moonkrackers Chords & Tabs

Version: 1 Type: Tab 1 rating
1 star 2 stars 3 stars 4 stars 5 stars
comments

Broken Glass Tab

Band: The MoonKrackers
Title: Broken Glass
Instrument: Guitar 1


Tuning: Standard 

Intro and pre verse
|-5----------------------------------5---------------------|
|-5-------9-----------------7--------5--------9------------|
|-6-------9--------9--------7--------6--------9-------9----|
|-7-------9--------10-------7--------7--------9-------10---|
|-7-------7--------10-------5--------7--------7-------10---|
|-5----------------8-----------------5----------------8----|

|------------------------------------------------------|
|------------------------------------------------------|
|-9-------10-------9--------7--------------------------|
|-10------10-------9--------7--------------------------|
|-10------8--------7--------5--------------------------|
|-8----------------------------------------------------|

[ Tab from: http://www.guitartabs.cc/tabs/t/the_moonkrackers/broken_glass_tab.html ]
Verse (you can work the rhythm out for yourself for both verse and chorus!)
|------------------------------------------------------|
|------------------------------------------------------|
|------------------------------------------------------|
|------------------------------------------------------|
|------7---------7----8----7----5----------------------|
|-5---------8------------------------------------------|

Chorus
|-5-----------------1-----5----------------------------|
|-5-----------------1-----7----------------------------|
|-6-----9-----6-----2-----7----------------------------|
|-7-----10----7-----3-----7----------------------------|
|-7-----10----7-----3-----5----------------------------|
|-5-----8-----5-----1----------------------------------|

Solo             x3
|------------------------------------------------------|
|-10-10-10-8-------------------------------------------|
|------------10-9----9-9-10-9--------------------------|
|-----------------------------10-7---------------------|
|------------------------------------------------------|
|------------------------------------------------------|


			
Comments