The Monty Norman Orcastra - James Bond Theme Chords & Tabs

 

James Bond Theme Chords & Tabs

The Monty Norman Orcastra Chords & Tabs

Version: 1 Type: Tab 9 ratings
1 star 2 stars 3 stars 4 stars 5 stars
comments

James Bond Theme Tab

--James Bond Theme--

This is my way of hearing it, and i think its tabbed much better
than anybody elses.  I took parts of other peoples, and mixed it 
with what i think is right

e------------------------
b---------
g---------                                      
d---------
a-2---3---4---3---2---3---4---3---  REPEAT 1x
e---0---0---0---0---0---0---0---0-

e---
b---
g---
d---
a-0-2-2-2-0-0-0--0-3-3-3-2-2-2-
e---

e---
b---
g---
d---
a-0-2-2-2-0-0-0--0-3-3-3-2-2-2-
e---
[ Tab from: http://www.guitartabs.cc/tabs/t/the_monty_norman_orcastra/james_bond_theme_tab.html ]
e---
b---
g---
d----------------------------1-0-
a-0-2-2-2-0-0-0--0-3-3-2-1-0-----2-0-2
e---

             REPEAT ALL THAT AGAIN....THAN...

e---
b---
g---0-4-3-0-
d-2---------5-6-3-2---2
a-------------------2---4  
e---

e---
b---
g---0-3-4-0-
d-2---------5-6-3-2---0-2
a---
e---

e---
b---
g---
d-0-0-0-2-0-2--3-3--3-2-0-2-0-0-0-2-0-2-3-3-3-2-0-2-
a---
e---

e---
b---
g---
d-6-6--0--6-6--0--6-6-6-6-6-6-6-6-0
a---
e---
 
 THATS ALL THE TAB FOR THIS SONG.  IT REPEATS FROM THE BEGINNING
 AFTER ALL THAT, BUT IM NOT GONNA WRITE ALL THAT TWICE.     







Comments