The Mongols - Bakit Nga Ba Chords & Tabs

 

Bakit Nga Ba Chords & Tabs

The Mongols Chords & Tabs

Version: 1 Type: Tab 0 ratings
1 star 2 stars 3 stars 4 stars 5 stars
comments

Bakit Nga Ba Tab

Song: Bakit Nga Ba
Artist: The Mongols
Album: Buddha's Pest
Submitted by: bogey

Intro:

E|-----------------------------------------------|
B|-----------------------------------------------|
G|----9-9-9-9--0----9-9-9-9---0-----------------| 8x
D|----9-9-9-9--0----9-9-9-9---0-----------------|
A|----7-7-7-7--0----7-7-7-7---0-----------------|
E|-----------------------------------------------|

Verse:

E|------------------------------------------------------------|
B|------------------------------------------------------------|
G|--------9---------------------------------------------------|
D|--------9-------------------------------------9---0---9-----|
A|--------7-------------------------------------9---0---9-----|
E|----------------------------------------------7---0---7-----|
   Bakit nga ba nauso? Mga bagay na kay hirap isipin?

E|------------------------------------------------------------|
B|------------------------------------------------------------|
G|--------9---------------------------------------------------|
D|--------9-------------------------------------9---0---9-----|
A|--------7-------------------------------------9---0---9-----|
E|----------------------------------------------7---0---7-----|
   Bakit nga ba ang puso, tumitibok kahit di mo man pilitin?


Refrain:

E|--------------------------------------------------------------|
B|--------------------------------------------------------------|
G|----------------------------------------------999---0---999---|
D|---7777----9999----------7777----9999---------999---0---999---|
A|---7777----9999----------7777----9999---------777---0---777---|
E|---5555----7777----------5555----7777-------------------------|
   Bakit ba umaandar na kapag ako ay kakalipat lang?
[ Tab from: http://www.guitartabs.cc/tabs/t/the_mongols/bakit_nga_ba_tab.html ]
Verse 2:
(Do verse chords)
Bakit nga ba ang pusa, tumatawid kahit bawal ang jaywalking?
Ba't kailangang basahin, mga balitang dinadala ng hangin?

Refrain 2:
(Do Refrain chords)
Bakit ba nagtatanong sa isang wala naming maisasagot?
Bakit nga ba?

Bridge:

E|--------------------------------------------------------------------|
B|--------------------------------------------------------------------|
G|----6666------4444--------6666--------4444--------------------------|
D|----6666------4444--------6666--------4444------------7777----9999--|
A|----4444------2222--------4444--------2222------------7777----9999--|
E|------------------------------------------------------5555----7777--|
   Masama ba ang magtanong? Masama ba ang magtanong?

E|------------------------------------------------------------|
B|------------------------------------------------------------|
G|-------9----------------------------------------------------|
D|-------9--------------------------------9999---0---9999-----|
A|-------7--------------------------------9999---0---9999-----|
E|----------------------------------------7777---0---7777-----|
    Wala nang balak tapusin ang sinasabi

Refrain 3:
(Do refrain chords)
Bakit ba tumatalon sa tuwa kapag ikaw ay nandiyan na?

E|----------------------------------------------------------|
B|----------------------------------------------------------|
G|------9999---0---9999---0---------------------------------|
D|------9999---0---9999---0---------------------------------| 8x
A|------7777---0---7777---0---------------------------------|
E|----------------------------------------------------------|

Refrain 4:
(Do Refrain chords)
Bakit ba nagtatanong sa isang di naman marunong sumagot
Di naman ito sinasadya
Di ko lang alam kung bakit ba

Bakit nga ba?(4x)
Comments