The Minibosses - The Goonies Ii Chords & Tabs

 

The Goonies Ii Chords & Tabs

The Minibosses Chords & Tabs

Version: 1 Type: Tab 0 ratings
1 star 2 stars 3 stars 4 stars 5 stars
comments

The Goonies Ii Tab

The Minibosses
Goonies II
[CAN BE HEARD AT TECHTV.COM's Minibosses Videos....USE GOOGLE! THEY ROOL]
Tabbed by: Hashmir al bashad
Email: revogovx@yahoo.com

E  :----10------8-10--------|6-5-6-5-6-5-3-1-------------|
B  :-------8-10-------------|----------------1h3---------|
G  :--7----------------x4---|---------------------0-2----|
D  :------------------------|----------------------------|
A  :------------------------|----------------------------|
E  :------------------------|----------------------------|

E  :----------------------|5-5-5-5-6-5-3-1-------------|
B  :----------------------|----------------3-3-3-5-6---|
G  :----------------------|----------------------------|
D  :0-0-0-2-3-5-3---------|----------------------------|
A  :----------------------|----------------------------|
E  :----------------------|----------------------------|
[ Tab from: http://www.guitartabs.cc/tabs/t/the_minibosses/the_goonies_ii_tab.html ]
E  :----------------------|-8-6-8-6-5-3-5-5-3-5-3-1-0-1|
B  :1-1-3-5-5-6-6---------|----------------------------|
G  :----------------------|----------------------------|
D  :----------------------|----------------------------|
A  :----------------------|----------------------------|
E  :----------------------|----------------------------|

E  :8-6-8-6-----------------|----------------------------|
B  :--------3-5-5-3-1-------|6-6-6-6-1-1-1-1-6-6-6-6-6---|
G  :------------------------|----------------------------|
D  :------------------------|----------------------------|
A  :------------------------|----------------------------|
E  :------------------------|----------------------------|

E  :------------------------------|------------------------|
B  :-3-3-3-3-3-6-3-6-6-8h10-8-8---|5-8-8-8-10-8-10-8-------|
G  :------------------------------|------------------------|
D  :------------------------------|------------------------|
A  :------------------------------|------------------------|
E  :------------------------------|------------------------|

E  :10-h12-12-10-8-10----------|--10------8-10----------|
B  :---------------------------|-----8-10---------------|
G  :---------------------------|7----------------x3-----|
D  :---------------------------|------------------------|
A  :---------------------------|------------------------|
E  :---------------------------|------------------------|
Comments