The Minibosses - Punchout Chords & Tabs

 

Punchout Chords & Tabs

The Minibosses Chords & Tabs

Version: 1 Type: Tab 1 rating
1 star 2 stars 3 stars 4 stars 5 stars
comments

Punchout Tab

The Minibosses
Punchout
Tabbed by: Hashmir Al Bashad
Email: revogovx@yahoo.com

E  :-------------------------|--------------------------------|
B  :-------------------------|--------------------------------|
G  :-------------------------|--------------------------------|
D  :-------------------------|----7-9-10-10-9-7-5-h7-5-5-h7-5-|
A  :----7-7-7-5-5-3-3-3-5-5--|5-7-----------------------------|
E  :-------------------------|--------------------------------|
[ Tab from: http://www.guitartabs.cc/tabs/t/the_minibosses/punchout_tab.html ]
E  :---------------------------------|------------------------------|
B  :---------------------------------|------------------------------|
G  :---------------------------------|------------------------------|
D  :10-9--7-9-10-10-9-10-12-h14-12---|12-h14-12-14-12-14-12---------|
A  :---------------------------------|------------------------------|
E  :---------------------------------|------------------------------|

E  :-----------------------------------------|
B  :-----------------------------------------|
G  :-----9-14-16-17-12-14-16-17-16-17-16-10--|
D  :7-10-------------------------------------|
A  :-----------------------------------------|
E  :-----------------------------------------|

E  :------------------------------|---------------------------|
B  :------------------------------|-5-----5-----6-----6-------|
G  :14-16-17-16-17-16-17-9--------|---5-----5-----7-----7-----|
D  :------------------------------|-----7-----7-----7-----7---|
A  :------------------------------|---------------------------|
E  :------------------------------|---------------------------|

E  :---------------------------|
B  :5-----5-----3-----3--------|
G  :--5-----5-----4-----4------|
D  :----7-----7-----5-----5----|
A  :---------------------------|
E  :---------------------------|
Comments