The Meg And Dia Band - Indiana Chords & Tabs

 

Indiana Chords & Tabs

The Meg And Dia Band Chords & Tabs

Version: 1 Type: Tab

Indiana Tab

-----------------------------------------------------------------------------
			     INDIANA - The Meg and Dia Band
---------------------------------------------------------------------------
http://www.purevolume.com/themeganddiaband
Tabbed by: chefboy67
Email: dudeimcrazy@gmail.com

Tuning: Standard


Remember it may look like one or two or three strums, but im really just trying to show 
strum more, thats just the chord. This is my first tab, so...here you go.

Intro
   (palm muted)
e|-------------------------------------------------------------------------|
B|-------------------------------------------------------------------------|
G|-------------------------------------------------------------------------|
D|-2-2-2->->---------------------------------------------------------------|
A|-2-2-2->->---------------------------------------------------------------|
E|-0-0-0->->---------------------------------------------------------------|


  (palm muted, but let off once in a while...listen to the song)
e|-------------------------------------------------------------------------|
B|-------------------------------------------------------------------------|
G|--------5-5-5---------7-7-7----------------------------------------------|
D|-2-2-2--5-5-5--5-5-5--7-7-7----------------------------------------------|
A|-2-2-2--3-3-3--5-5-5--5-5-5----------------------------------------------|
E|-0-0-0---------3-3-3-----------------------------------------------------|

Chorus

  She...  began to die Indiana...not right   Indiana  not right
e|-3-3-3--3-3-3--3-3-3--3-3-3---------0-0-0---3-3-3------0-0-0-0------------|
B|-3-3-3--3-3-3--3-3-3--3-3-3---------1-1-1---3-3-3------0-0-0-0------------|
G|-0-0-0--0-0-0--0-0-0--2-2-2---------0-0-0---0-0-0------0-0-0-0------------|
D|-2-2-2--2-2-2--0-0-0--0-0-0---------2-2-2---0-0-0------2-2-2-2------------|
A|-2-2-2--3-3-3--2-2-2----------------3-3-3---2-2-2------2-2-2-2------------|
E|-0-0-0---------3-3-3------------------------3-3-3------3-2-3-0------------|
                      You have to mess around with this part^

Then She...began to bite Indiana...it mine   Indiana  make it mine
e|-333---3-33----3-3-3--3-3-3---------0-0-0---3-3-3------0-0-0-0------------|
B|-333---3-33----3-3-3--3-3-3---------1-1-1---3-3-3------0-0-0-0------------|
G|-000---0-00----0-0-0--2-2-2---------0-0-0---0-0-0------0-0-0-0------------|
D|-222---2-22----0-0-0--0-0-0---------2-2-2---0-0-0------2-2-2-2------------|
A|-222---3-33----2-2-2----------------3-3-3---2-2-2------2-2-2-2------------|
E|-000-----------3-3-3------------------------3-3-3------3-2-3-0------------|

[ Tab from: http://www.guitartabs.cc/tabs/t/the_meg_and_dia_band/indiana_tab.html ]
(this part is kinda crazy)
So pale in the..... So inclined...(blah blah) feel lonely tonight
e|-0---0---0-----------------------0----0-0---0-0-0-------------------------|
B|-3p0-3p0-0-----------------------3p0--3-3---1-1-1-------------------------|
G|-0---0---0-------(repeat)--------0----2-2---0-0-0-------------------------|
D|-2---2---2-----------------------2----0-0---2-2-2-------------------------|
A|-x---x---2-----------------------x----------3-3-3-------------------------|
E|-3---2---0-----------------------3----------------------------------------|
(then repeat this^ part one more time for "shes strong, but I....")


Then back to
"I can do..."
e|-------------------------------------------------------------------------|
B|-------------------------------------------------------------------------|
G|--------5-5-5---------7-7-7----------------------------------------------|
D|-2-2-2--5-5-5--5-5-5--7-7-7----------------------------------------------|
A|-2-2-2--3-3-3--5-5-5--5-5-5----------------------------------------------|
E|-0-0-0---------3-3-3-----------------------------------------------------|


after second chorus goes this (two guitars)
e|-------------------------------------------------------------------------|
B|--------3-0-----3-0------3-0---------------------------------------------|
G|-------------------------------------------------------------------------|
D|--------------------------------4-4-4h5-0--------------------------------|
A|-------------------------------------------------------------------------|
E|-0-1-2-3333333-2222222-0000000-------------------------------------------|

then this once
e|-----------2-------3-3--2-2----------------------------------------------|
B|---3-0-------3-----5-5--2-3----------------------------------------------|
G|-------------------4-4--4-4----------------------------------------------|
D|-------------------------------------------------------------------------|
A|-------------------------------------------------------------------------|
E|--3333333-7777777-111--0-0-----------------------------------------------|

and back to this
e|-------------------------------------------------------------------------|
B|--------3-0-----3-0------3-0---------------------------------------------|
G|-------------------------------------------------------------------------|
D|--------------------------------4-4-4h5-0--------------------------------|
A|-------------------------------------------------------------------------|
E|-0-1-2-3333333-2222222-0000000-------------------------------------------|


then after the next chorus..
"ooohhh nooo...."
e|-3--3--3--3---3--3--3--3-------------------------------------------------|
B|-3--3--3--3---3--3--3--3-------------------------------------------------|
G|-0--0--2--0---0--0--2--2-------------------------------------------------|
D|-0--0--0--2---0--0--0--0-------------------------------------------------|
A|-2--x--2--3---2--x--2--x-------------------------------------------------|
E|-3--2--x--x---3--2--x--x-------------------------------------------------|

youll have to keep switching from Dsus4 to D and back

wooooo ok its kinda pretty much done.... a little bit shitty, but its there!!