The Mascara Story - This Is Not A Bruise Chords & Tabs

 

This Is Not A Bruise Chords & Tabs

The Mascara Story Chords & Tabs

Version: 1 Type: Bass Tab 0 ratings
1 star 2 stars 3 stars 4 stars 5 stars
comments

This Is Not A Bruise Bass Tab

   
ARTIST: The Mascara Story
TITLE: This Is Not A Bruise (EP version)
TUNING: Eb Ab Db Gb
TABBER: a_fools_funeral@mindless.com


This is how i think Sean plays his part in this awesome song!
Any comments or whatever email me!!!!
****************************************************************************
INTRO
|--------------|------------------|-------------------------------|
|--Guitar riff-|------------------|-------------------------------|
|--------------|-----5------------|-----5-------------------------|
|--------------|-7-------0---2----|-7-------0---22-2-2-2-2-2-2/5--|

|---------------------------|
|---------------------------|
|-5-------------------------|
|-----0---5-55-555-555-555--|

VERSE
|--------------------------------------------------|
|--------------------------------------------------|
|------------------5-55-5--7-77-7--5-55-5--7-77-7--|
|-0h2--0h2--0h2-2----------------------------------|

|---------------------------------------------|
|---------------------------------------------|
|------------------5-55-5--7-77-7--5-55-5--7--|
|-0h2--0h2--0h2-2-----------------------------|

PRECHORUS x2
|------------------------------------------------------------------|
|------------------------------------------------------------------|
|-----------------5-5-5-5-5-5-5-5----------------------------------|
|-2-2-2-2-2-2-2-2-----------------0-0-0-0-0-0-0-0-0-0-0-0-0-0-0-0--|

|-------------------------------|
|-------------------------------|
|----------------5-55-5-7-77-7--|
|-0h2-2--2/5-55-----------------|

VERSE
|--------------------------------------------------|
|--------------------------------------------------|
|------------------5-55-5--7-77-7--5-55-5--7-77-7--|
|-0h2--0h2--0h2-2----------------------------------|

|-------------------------------------------|
|-------------------------------------------|
|-4--4--4-4-4444--5--5--5-5-5555------------|
|---------------------------------5\--------|

|-----------------|---------------------------------|
|-----------------|---------------------------------|
|-----------------|-5-55-5--7-77-7--5-55-5--7-77-7--|
|-0h2--0h2--0h2-2-|---------------------------------|

|---------------------------------|
|---------------------------------|
|-4--4--4-4-4444--5--5--5-5-5555--|
|---------------------------------|
[ Tab from: http://www.guitartabs.cc/tabs/t/the_mascara_story/this_is_not_a_bruise_btab.html ]
|--------------------------|--------------------------|
|-Guitar riff--------------|--------------------------|
|--------------------------|--------------------------|
|--------------------------|--0-0-0-5--0-0-0-7--------|

CHORUS x2
|------------------------------------------------------------------|
|------------------------------------------------------------------|
|-----------------5-5-5-5-5-5-5-5----------------------------------|
|-2-2-2-2-2-2-2-2-----------------0-0-0-0-0-0-0-0-0-0-0-0-0-0-0-0--|

BRIDGE
|--------------------------------------------------|
|--------------------------------------------------|
|----------------------------------------------5---|
|-2-22-0h2-2--2-22-0h2-2--2-22--0h2-2--0h2-2-0-----|

|------------------------   |--------------------------------------------|
|------------------------ x4|--------------------------------------------|
|---------7--55-5--------   |--3--3-3--3-3-3--3-3-3--3-3-3-3333333333333-|
|-5--22-2----------------   |--------------------------------------------|

|------------	|--------------------------|------------------------|
|------------	|-Guitar riff--------------|------------------------|
|------------	|--------------------------|------------------------|
|-5-55-5-55--	|--------------------------|-0h2--------------------|

PRECHORUS x2

CHORUS
|------------------------------------------------------------------|
|------------------------------------------------------------------|
|-----------------5-5-5-5-5-5-5-5----------------------------------|
|-2-2-2-2-2-2-2-2-----------------0-0-0-0-0-0-0-0-0-0-0-0-0-0-0-0--|

|---------------------------------------------------------------|
|---------------------------------------------------------------|
|-----------------5-5-5-5-5-5-5-5-------------------------------|
|-2-2-2-2-2-2-2-2------------------0-0-0-0-0-0-0-0-0-0-0-0-0-0--|

|------------------------------------|----------------------------------|
|------------------------------------|----------------------------------|
|-2/7-7-7-7-7-7-7-7-7-7-7-7-7-7-7-7--|----------------------------------|
|------------------------------------|-2-2-2-2-2-2-2-2-5-5-5-5-5-5-5-5--|

OUTRO
|--------------|------------------|-------------------------------|
|--Guitar riff-|------------------|-------------------------------|
|--------------|-----5------------|-----5-------------------------|
|--------------|-7-------0---2----|-7-------0---22-2-2-2-2-2-2/5--|

|------------------------|
|------------------------|
|-5----------------------|
|-----0---5~~~~~~~~~~~~--|
Comments