The Maine - Give Me Anything Chords & Tabs

 

The Maine Chords & Tabs

Version: 3 Type: Tab 0 ratings
1 star 2 stars 3 stars 4 stars 5 stars
comments

Give Me Anything Tab

Artist:The Maine
Song: Give Me Anything
Album: The Way We Talk

Intro:
e---------------------------------|
G---------------------------------|
B------------4-4-6-6-6------------|
D---2-2--4-6-4-4-6-6-6------------|
A---2-2--4-6-2-2-4-4-4------------|
E---0-0--2-4----------------------|
e---------------------------------|

G------------------------------|
B------------------------------|
D---2-2--4-6-6-6-6-4-6-4-------|
A---2-2--4-6-6-6-6-4-6-4-------|
E---0-0--2-4-4-4-4-2-4-2-------|


Verse:(palm mute)
e---------------------------------------------------|
G---------------------------------------------------|
B-----------444444----------------------------------|
D---2222222-444444-222222-66666-44444---------------|           x2
A---2222222-222222-222222-66666-44444---------------|
E---0000000--------000000-44444-22222---------------|

[ Tab from: http://www.guitartabs.cc/tabs/t/the_maine/give_me_anything_tab_ver_3.html ]
Pre Chorus:
e-----------------------------------|
G---4-------------------------------|
B---4--2---6--4---------------------|       x2
D---2--2---6--4---------------------|
A------0---4--2---------------------|
E-----------------------------------|

Chorus ( Same as verse just not palm muted)

Intro (this time play it twice)

Pre Chorus
e----------------------------------------------|
G----------------------------------------------|
B----------------------------------------------|       x2
D---666666666666--66666666666-4-4-2------------|
A---666666666666--66666666666-4-4-2------------|
E---444444444444--44444444444-2-2-0------------|

Chorus

Bridge
e----------------------------------|
G----------------------------------|
B----------------------------------|       x4
D----6-6-4-4-2---------------------|
A----6-6-4-4-2---------------------|
E----4-4-2-2-0---------------------|

Last Pre Chorus
e-----------------------------------|
G---4-------------------------------|
B---4--2---6--4---------------------|       x4
D---2--2---6--4---------------------|
A------0---4--2---------------------|
E-----------------------------------|

Chorus Until End.
Enjoy.
Comments