The Magic Numbers - I See You You See Me Chords & Tabs

 

I See You You See Me Chords & Tabs

The Magic Numbers Chords & Tabs

Version: 1 Type: Tab 0 ratings
1 star 2 stars 3 stars 4 stars 5 stars
comments

I See You You See Me Tab

   
intro: G C G C G C open E

verse: G C G Bm C...G *2

chorus: D D C....  *3
	Em... D..C STOP

break: G C G C

verse: G C G Bm C...G *2   FILL1 in middle

chorus: D D C.... (high) *3
	Em... D..C STOP

break: G C G C

verse: G C G Bm C...G *2   FILL1 in middle


break: bass notes - CCCCCCDDDDDD
	C........D *8

	Em.. D C  *2

break: G C G C *10?  w/end

       G


FILLS:

fill1:


-----3------5------7----------|
------------------------------|
-2/4---4/5----5/7-------------|
------------------------------|
------------------------------|
------------------------------|

end: 5.05

------------------------------|
------------------------------|
-2/4-2/4----------------------|
----------5-4-0---------------|   *6
----------------3-------------|
------------------------------|


over on 5th

-3-3-2-2-------2-3-3/5------then fill1-|
---------1-1---------------------------|
---------------------------------------|
---------------------------------------|
---------------------------------------|
---------------------------------------|




vocal tab:


verse1+2: *2

---------------------------------------|
---------------------------------------|
--0-0-0-0-0-0-2/4---0-0----------------|
------------------0-----2-0------------|
---------------------------------------|
---------------------------------------|

---------------------------------------|
---------------3---5-------------------|
--0-0-0-0-0-0--------------------------|
----------------------4-4-4\2----------|
---------------------------------------|
---------------------------------------|

---------------------------------------|
---------------------------------------|
---0-0-----0------0--------------------|
-2-----2-0---2--0---2-0----------------|
---------------------------------------|
---------------------------------------|


chorus:

---------------------------------------|
----3-3-1------------------------------|
----------0-0-0-0-0-0-0-0h2-4----------|
-0-------------------------------------|
---------------------------------------|
---------------------------------------|


---------------------------------------|
----3-3-1------------------------------|
----------0-0-0-0-0-0-0----------------|
------------------------2-2p0----------|
---------------------------------------|
---------------------------------------|
[ Tab from: http://www.guitartabs.cc/tabs/t/the_magic_numbers/i_see_you_you_see_me_tab.html ]
-------------------------------------------------------|
----3-3-1----------------------------------------------|
----------0-0-0-0-0-0-0--7/9---------4-4-2-0-0-4-0-----|
-----------------------------9-7-5-----------------2---|
-------------------------------------------------------|
-------------------------------------------------------|

---------------------------------------|
---------------------------------------|
-0-0-0-0-2-0-0-------------------------|
---------------------------------------|
---------------------------------------|
---------------------------------------|

break ooh:


-------5-2---2-3-2-----------5-2---2-3-2-|
-5--5--------------3--5-3-5--------------|
-----------------------------------------|
-----------------------------------------|
-----------------------------------------|
-----------------------------------------|

vocals:

-----------------------------------------|
-----------------------------------------|
--4-4-4-2--------------------------------|
----------5-4--4-4-4-2-------------------|
-----------------------5-3---------------|
-----------------------------------------|


-----------------------------------------|
-------3---3---3-3-3---------------------|
-4-4-4---4-----------5-4-4---------------|
-----------------------------------------|
-----------------------------------------|
-----------------------------------------|

woman:  --3-3-3-3-3-2---2-2-2-0--------3-3-3-3-3-2---2-2-3-5/7-5-3--------------|
    -------------------------3-1------------------------------------------------|
    ----------------------------------------------------------------------------|
    ----------------------------------------------------------------------------|
    ----------------------------------------------------------------------------|

man:    ---------------------------------------------------------------------------------------------|
    ----------------------------------------------------------3-3-3---------------------3-3-3--------|
    --4-4-4-2-0---4-4-4---4-4-4-2-0-------4-4-4---4-4-4-2-0---------5-4----4-4-4-2-0--------------5--|
    -------------------------------------------------------------------------------------------------|
    -------------------------------------------------------------------------------------------------|
    -------------------------------------------------------------------------------------------------|

	----------------------------------------------------------------------------------------------------|
	---------5---------3/5-5-5-5--3-3-3\1----------------5----------------------------------------------|
	--4-4-4----4-2-0-------------------------0-0-0-0-0-----4-2-0---h4-4-2-0-0-4-----------0-0-0-0-2-0-0-|
	----------------------------------------------------------------------------5-2---------------------|
	----------------------------------------------------------------------------------------------------|
	----------------------------------------------------------------------------------------------------|

andeh, www.the-rails.co.uk
Comments