The M 48 - White Stairways Chords & Tabs

 

White Stairways Chords & Tabs

The M 48 Chords & Tabs

Version: 1 Type: Tab 0 ratings
1 star 2 stars 3 stars 4 stars 5 stars
comments

White Stairways Tab

White Stairways by The M-48
intro:e--0-3-------3-2-------2-1--------1-0-----------------------
      b-----0----0-----0----0-----0----0-----0----0---------------
      g--------3----------3----------3----------3-----------------x3
      d-----------------------------------------------------------
      a-----------------------------------------------------------
      e-----------------------------------------------------------

[ Tab from: http://www.guitartabs.cc/tabs/t/the_m_48/white_stairways_tab.html ]
      e--3-3-2-2-1-1-0-0------------------------------------------
      b--0-0-0-0-0-0-0-0---3-3-2-2-1-1-0-0------------------------
      g--------------------0-0-0-0-0-0-0-0------------------------x3
      d-----------------------------------------------------------
      a-----------------------------------------------------------
      e-----------------------------------------------------------


Bridge:          A  Am      (= upstroke, /=downstroke)
               // / \ /
               then use the same pattern on E and Em


the chords in the chorus are simple: A   E   G   D
                                   //  //  // //



here's the whole thing:
intro
bridge
chorus (x4)
bridge
chorus (x4)
intro
solo
bridge 
chorus (x2)
bridge
intro (while fading)
Comments