The Low Life - Moonshine Chords & Tabs

 

Moonshine Chords & Tabs

The Low Life Chords & Tabs

Version: 1 Type: Tab

Moonshine Tab

   
-------------------------------------------------------------------------------
			     MOONSHINE - The Low Life
-------------------------------------------------------------------------------
Tabbed by: TC
Email: ttufts@umich.edu

This may or may not be 100% accurate, but I've never seen another tab for this or any 
Low Life song, so this'll have to do.

The Low Life was an excellent band for the few years they were together.  This tab 
do justice to this great song.


Tuning: Standard


Intro:
e|--------------12--12--12p10----------------------------------------------|
B|---12--12-----------------------12--12-----12--12--12p10-----12--12--10--|
G|9----------9-----------------9----------9-----------------9--------------|
D|-------------------------------------------------------------------------|
A|-------------------------------------------------------------------------|
E|-------------------------------------------------------------------------|
[ Tab from: http://www.guitartabs.cc/tabs/t/the_low_life/moonshine_tab.html ]
e|---------------------------|
B|10h12p10--8--8--10--10/12--|
G|---------------------------|
D|---------------------------|
A|---------------------------|
E|---------------------------|
Add some variation and throw in some harmonics to this and listen to the album for 
as this tab does NOT reflect accurate time.  Repeat it a few times.

Main Verse:
e|3--3-----0--0----2--3--3----------------------------------------------------------|
B|3--3-----0--0----3--5--5----------------------------------------------------------|
G|4--4-----0--0----4--5--5----------------------------------------------------------|
D|5--5-----2--2----4--5--5----------------------------------------------------------|
A|5--5-----2--2----2--3--3----------------------------------------------------------|
E|3--3-----0--0----2--X--X----------------------------------------------------------|
   G        Em    Bm   C

Let C ring before repeating it.


Chorus:
e|3--3/10--10--5--5---5--5---5\3--|
B|5--5/12--12--7--7h8-8--8p7-7\5--|
G|5--5/12--12--7--7---7--7---7\5--|
D|5--5/12--12--7--7---7--7---7\5--|
A|3--3/10--10--5--5---5--5---5\3--|
E|X--X/X---X---X--X---X--X---X\X--|
  C        G   D

Again, listen to the song for timing. This also sounds cool to have an acoustic playing 
open C G and D chords over this.


h hammer-on
p pull-off
/ slide up
\ slide down