The Low Life - Castaway Chords & Tabs

 

Castaway Chords & Tabs

The Low Life Chords & Tabs

Version: 1 Type: Tab

Castaway Tab

   
Enjoy.  Let me know if any part is wrong.  djm1846@Uncw.edu

Castaway

Intro/verse
e-------------------------------------------------|
b-------------------------------------------------|
g--------7--7--------9---10---9-------------------|
d--------7--7---10--10---10--10-------------------|
a--5--5--5--5---10--10---8---8--------------------|
E----------------8---8----------------------------|
[ Tab from: http://www.guitartabs.cc/tabs/t/the_low_life/castaway_tab.html ]
Chorus
G, G, Dm, Am

We're All Castaway
G, C, Dm, Am

Outro
e---------------------------------------------------|
b---------------------------------------------------|
g---9---9----10---9---------------------------------|
d---9---10---12---10--------------------------------|
a---7---8----12---10--------------------------------|
E---------------------------------------------------|