The Longcut - A Quiet Life Chords & Tabs

 

A Quiet Life Chords & Tabs

The Longcut Chords & Tabs

Version: 1 Type: Bass Tab 0 ratings
1 star 2 stars 3 stars 4 stars 5 stars
comments

A Quiet Life Bass Tab

   
---------------------------------------------------------------------                
A Quiet Life - The Longcut
---------------------------------------------------------------------
great new british band and great song. i saw them on mtv2 britain's
spanking new music show and thought i had 2 tab this.

Tabbed By : tom c

play with distortion

Tuning:GDAE

Intro (00:14):
G|--------------------|
D|--------------------| x4     Not sure if its right but it sounds gd anyway
A|--------------------|
E|--5b-5b-5b-5b-5-5---|

Verse:
G|------------------------------------------------------------------------|
D|------------------------------------------------------------------------|
A|------------------------------------------------10-10-10p9--------------|
E|55555555/8-8-8-8p7-7-7-7h8p7--5-5-5-5-5-5-5-5/------------10-10-10-10p9-|
[ Tab from: http://www.guitartabs.cc/tabs/t/the_longcut/a_quiet_life_btab.html ]
Until 2:21 when it goes
G|------------------------------------------------------------|
D|------------------------------------------------------------| x2
A|----------------------------10-10-101010p9------------------|
E|--5-5-7-8-7-5--5-5-7-8-7-5---------------10-10-101010p9----|

G|-------------------------------------------------|
D|-------------------------------------------------| x4
A|-------------------------------------------------|
E|--555555555555555h6/1313131313131313131313p12----|
    
   -------------short break---------------

3:08
G|------------------------------------------------------------|
D|------------------------------------------------------------| x4
A|----------------------------10-10-101010p9------------------|
E|--5-5-7-8-7-5--5-5-7-8-7-5---------------10-10-101010p9----|


G|-------------------------------------------------|
D|-------------------------------------------------| x8
A|-------------------------------------------------|
E|--555555555555555h6/1313131313131313131313p12----|


let last 12 ring



| /  slide up
| \  slide down
| h  hammer-on
| p  pull-off
| b  bend
===============================================================================
Comments