The Lone Rangers - Degenerated Chords & Tabs

 

Degenerated Chords & Tabs

The Lone Rangers Chords & Tabs

Version: 1 Type: Tab 0 ratings
1 star 2 stars 3 stars 4 stars 5 stars
comments

Degenerated Tab

Artist: The Lone Rangers
Title: Degenerated (Airheads Soundtrack)                        
Tabbed by: brandon

                                                   
D--------------------------------------------------|
A--------------------------------------------------|
F--------------------------------------------------|
C----------17/16/15/14/13/12/11/10/9/8/7/6/5/4/3/2-|
G----------x--x--x--x--x--x--x--x--x-x-x-x-x-x-x-x-|
D----------15/14/13/12/11/10/9/-8/-7/6/5/4/3/2/1/0-|


                                                                        
----------------------------------------|-------------------14~--------|
--17--------17----------17----------17--|--17-----17-------------------|
--16b-------16b16h14----16b16h14----16b-|-----16r----16r-14------------|
---------------------16----------16-----|------------------------------|
----------------------------------------|------------------------------|
----------------------------------------|------------------------------|


                                                            
-----------------------------------------------------------|
-----------------------------------------------------------|
--18-16-15-16-15-13-15-12-11-13-10-9-11-9-8-9-8-6-8-6-4----|
--------------------------------------------------------4~-|
-----------------------------------------------------------|
-----------------------------------------------------------|


                       
----------------------|
----------------------|
--------2-3-----------|
------4-----4~--------|
----------------------|
----------------------|


                                                                                
--14h18h14----14h18h14----14h18h14----14h18h14----14h18h14----14h18h14----14h18h
-----------14----------14----------14----------14----------14----------14-------
--------------------------------------------------------------------------------
--------------------------------------------------------------------------------
--------------------------------------------------------------------------------
--------------------------------------------------------------------------------


                                                                      
--18b-18~-14-18-14----14------------|--------------------------------|
-------------------14----17~--------|--17---17---17---17---17--------|
------------------------------------|--16b--16b--16b--16b--16r-14----|
------------------------------------|-----------------------------16-|
------------------------------------|--------------------------------|
------------------------------------|--------------------------------|


                                                              
----------------------------||-------------------------------|
----------------------------||-------------------------------|
--14~------14-16-14~--------||*------------------------------|
--------16------------------||*--4--4-4--4-4-4-4--4-4--4-4-4-|
----------------------------||---4--4-4--4-4-4-4--4-4--4-4-4-|
----------------------------||---2--2-2--2-2-2-2--2-2--2-2-2-|


                                                              
------------------------------|------------------------------|
------------------------------|------------------------------|
------------------------------|------------------------------|
--7--7-7--7-7-7-7--7-7--7-7-7-|--2--2-2--2-2-2-2--2-2--2-2-2-|
--7--7-7--7-7-7-7--7-7--7-7-7-|--2--2-2--2-2-2-2--2-2--2-2-2-|
--5--5-5--5-5-5-5--5-5--5-5-5-|--0--0-0--0-0-0-0--0-0--0-0-0-|


                               3x                                    
-------------------------------||-----------------------------------|
-------------------------------||-----------------------------------|
------------------------------*||*----------------------------------|
--4--4-4--4-4-4-4--4-4--4-4-4-*||*--4-4-4-4-4-4-4-4-4-4-4-4-4-4-4-4-|
--4--4-4--4-4-4-4--4-4--4-4-4--||---4-4-4-4-4-4-4-4-4-4-4-4-4-4-4-4-|
--2--2-2--2-2-2-2--2-2--2-2-2--||---2-2-2-2-2-2-2-2-2-2-2-2-2-2-2-2-|


                                                                      
----------------------------------|----------------------------------|
----------------------------------|----------------------------------|
----------------------------------|----------------------------------|
--7-7-7-7-7-7-7-7-7-7-7-7-7-7-7-7-|--2-2-2-2-2-2-2-2-2-2-2-2-2-2-2-2-|
--7-7-7-7-7-7-7-7-7-7-7-7-7-7-7-7-|--2-2-2-2-2-2-2-2-2-2-2-2-2-2-2-2-|
--5-5-5-5-5-5-5-5-5-5-5-5-5-5-5-5-|--0-0-0-0-0-0-0-0-0-0-0-0-0-0-0-0-|


                                     
-----------------------------------||
-----------------------------------||
----------------------------------*||
--4-4-4-4-4-4-4-4-4-4-4-4-4-4-4-4-*||
--4-4-4-4-4-4-4-4-4-4-4-4-4-4-4-4--||
--2-2-2-2-2-2-2-2-2-2-2-2-2-2-2-2--||


                                                           
----------------------------------------------------------|
----------------------------------------------------------|
--11h2h6-11h2h6-11h2h6-11h2h6-11h2h6-11h2h6-11h2h6-11h2h6-|
----------------------------------------------------------|
----------------------------------------------------------|
----------------------------------------------------------|

[ Tab from: http://www.guitartabs.cc/tabs/t/the_lone_rangers/degenerated_tab.html ]
                                                                    
-----------7--------------------|----------------------------------|
----7-9-10---10-9-----------9---|------12-------------12-----------|
--9---------------9-9~----9---9-|--11b-----11r-9-11b------11r-9-11-|
--------------------------------|----------------------------------|
--------------------------------|----------------------------------|
--------------------------------|----------------------------------|


                                                                         
------12---------12b--------|-------------------------------------------|
--12b-----12r-10------------|--12r-10-12r-10-12r-10-12r-10-12r12-10-----|
----------------------------|---------------------------------------11~-|
----------------------------|-------------------------------------------|
----------------------------|-------------------------------------------|
----------------------------|-------------------------------------------|


                                                                
--------------------------------|------------------------------|
---------10---------------10----|------------------------------|
------11----11-11~-----11----11-|--9r-7---9r-7---9r-7---9r-7---|
--------------------------------|-------9------9------9------9-|
--------------------------------|------------------------------|
--------------------------------|------------------------------|


                                                                
----------------------------|----------------------------------|
-----10-7-10-7-10-7~--------|--5-5-5-5-5-5-5-5-5-5-5-5-5-5-5-5-|
--7~------------------------|--7b7b7b7b7b7b7b7b7b7b7b7b7b7b7b7b|
----------------------------|----------------------------------|
----------------------------|----------------------------------|
----------------------------|----------------------------------|


                                                                      
----------------------------------|----------------------------------|
--5-5-5-5-5-5-5-5-5-5-5-5-5-5-5-5-|--6-6-6-6-6-6-6-6-6-6-6-6-6-6-6-6-|
--7b7b7b7b7b7b7b7b7b7b7b7b7b7b7b7b|--8b8b8b8b8b8b8b8b8b8b8b8b8b8b8b8b|
----------------------------------|----------------------------------|
----------------------------------|----------------------------------|
----------------------------------|----------------------------------|


                                   
----------------------------------|
--6-6-6-6-6-6-6-6-6-6-6-6-6-6-6-6-|
--8b8b8b8b8b8b8b8b8b8b8b8b8b8b8b8b|
----------------------------------|
----------------------------------|
----------------------------------|


                                                   
--------------------------------------------------|
--15-15-15-15-15-15-15-15-15-15-15-15-15-15-15-15-|
--17b17b17b17b17b17b17b17b17b17b17b17b17b17b17b17b|
--------------------------------------------------|
--------------------------------------------------|
--------------------------------------------------|


                                                   
--------------------------------------------------|
--15-15-15-15-15-15-15-15-15-15-15-15-15-15-15-15-|
--17b17b17b17b17b17b17b17b17b17b17b17b17b17b17b17b|
--------------------------------------------------|
--------------------------------------------------|
--------------------------------------------------|


                                            
-------------------------------------------|
--15-----15-----15-----15-----15-----------|
--14b-12-14b-12-14b-12-14b-12-14b14h12-----|
---------------------------------------14--|
-------------------------------------------|
-------------------------------------------|


                                            
-------------------------------------------|
--15-----15-----15-----15-----15-----------|
--14b-12-14b-12-14b-12-14b-12-14b14h12-----|
---------------------------------------14--|
-------------------------------------------|
-------------------------------------------|


                                                                        
|-----------------------------------|----------------------------------|
|-----------------------------------|----------------------------------|
|*----------------------------------|----------------------------------|
|*----------------------------------|----------------------------------|
|-----------------------------------|----------------------------------|
|---2-2-2-2-2-2-2-2-2-2-2-2-2-2-2-2-|--5-5-5-5-5-5-5-5-5-5-5-5-5-5-5-5-|


                                                                        
----------------------------------|-----------------------------------||
----------------------------------|-----------------------------------||
----------------------------------|----------------------------------*||
----------------------------------|----------------------------------*||
----------------------------------|-----------------------------------||
--0-0-0-0-0-0-0-0-0-0-0-0-0-0-0-0-|--2-2-2-2-2-2-2-2-2-2-2-2-2-2-2-2--||


                                                                       
-----------------------------------|----------------------------------|
-----------------------------------|----------------------------------|
*----------------------------------|----------------------------------|
*--4-4-4-4-4-4-4-4-4-4-4-4-4-4-4-4-|--7-7-7-7-7-7-7-7-7-7-7-7-7-7-7-7-|
---4-4-4-4-4-4-4-4-4-4-4-4-4-4-4-4-|--7-7-7-7-7-7-7-7-7-7-7-7-7-7-7-7-|
---2-2-2-2-2-2-2-2-2-2-2-2-2-2-2-2-|--5-5-5-5-5-5-5-5-5-5-5-5-5-5-5-5-|


                                                                      4x
----------------------------------|-----------------------------------||
----------------------------------|-----------------------------------||
----------------------------------|----------------------------------*||
--2-2-2-2-2-2-2-2-2-2-2-2-2-2-2-2-|--4-4-4-4-4-4-4-4-4-4-4-4-4-4-4-4-*||
--2-2-2-2-2-2-2-2-2-2-2-2-2-2-2-2-|--4-4-4-4-4-4-4-4-4-4-4-4-4-4-4-4--||
--0-0-0-0-0-0-0-0-0-0-0-0-0-0-0-0-|--2-2-2-2-2-2-2-2-2-2-2-2-2-2-2-2--||

Comments