The Livley Ones - Surf Rider Chords & Tabs

 

Surf Rider Chords & Tabs

The Livley Ones Chords & Tabs

Version: 1 Type: Tab 1 rating
1 star 2 stars 3 stars 4 stars 5 stars
comments

Surf Rider Tab

   
From: "Mike" 
Surf Rider
Pulp Fiction Soundtrack
As performed by The Lively Ones

Chords:
A  -  5  7  7  6  5  5
G  -  3  5  5  4  3  3
F  -  1  3  3  2  1  1
E  -  0  2  2  1  0  0
Am -  x  0  2  2  1  0
A7 -  x  x  7  6  8  5
D7 -  x  x 12 11 13 10

INTRO
   A                                   G
E|-----------------|-----------------|-----------------|-----------------|
B|-----------------|-----------------|-----------------|-----------------|
G|-----------------|-----------------|-----------------|-----------------|
D|-----7-----5-----|-----7-----5-----|-----5-----3-----|-----5-----3-----|
A|-------5h7-------|-------5h7---7p5-|-------3h5-------|-------3h5---5p3-|
E|-5---------------|---5-------------|-3---------------|---3-------------|
   F                                   E
E|-----------------|-----------------|-----------------|-----------------|
B|-----------------|-----------------|-----------------|-----------------|
G|-----------------|-----------------|-----------------|-----------------|
D|-----3-----1-----|-----3-----1-----|-----------------|-2-2-0-0---------|
A|-------1h3-------|-------1h3---3p1-|-----------------|---------3-3-2-0-|
E|-1---------------|---1-------------|-0-------0-------|-----------------|
[ Tab from: http://www.guitartabs.cc/tabs/t/the_livley_ones/surf_rider_tab.html ]
VERSE
   Am                                  F
E|-----------------|-----------------|-----------------|-----------------|
B|---------0---1---|-------0h1-0-----|---------0---1---|-------0h1-0-----|
G|-----2-----------|-----2-------2p0-|-----2-----------|-----2-------2p0-|
D|-2---------------|---2-------------|-3---------------|---3-------------|
A|-----------------|-----------------|-----------------|-----------------|
E|-----------------|-----------------|-----------------|-----------------|
   E                                   Am
E|-----------------|-----------------|-0---------------|-5---------------|
B|-------------0---|-3/5-5-5-3p0-----|-1---------------|-5---------------|
G|---------1-------|-------------2p0-|-2---------------|-5---------------|
D|-----2-----------|-----------------|-2---------------|-----------------|
A|-----------------|-----------------|-----------------|-----------------|
E|-0---------------|-----------------|-----------------|-----------------|

CHORUS
   A7                                  D7
E|---5-----5-----5-|-----5-----5--/--|--10----10-------|10--1010\--------|
B|-----8-----8-----|-8-----8-----8/--|----13------13---|--13-------------|
G|-----------------|--------------/--|-----------------|-----------------|
D|-----------------|--------------/--|-----------------|-----------------|
A|-----------------|-----------------|-----------------|-----------------|
E|-----------------|-----------------|-----------------|-----------------|

E|-------------------------|-------13-------13-------|
B|-13/15-13-13-13/15-13-13-|-13-15----13-15----15-13-|
G|-------------------------|-------------------------|
D|-------------------------|-------------------------|
A|-------------------------|-------------------------|
E|-------------------------|-------------------------|

E|-----------------------|------------------------|
B|/17---17---15p13-------|------------------------|
G|-----------------14p12-|-16---16----14p12-------|
D|-----------------------|------------------14p12-|
A|-----------------------|------------------------|
E|-----------------------|------------------------|

ENDING
   Em                Am
E|-12--------------|-17--------------|
B|-13--------------|-17--------------|
G|-14--------------|-17--------------|
D|-----------------|-----------------|
A|-----------------|-----------------|
E|-----------------|-----------------|

Layout:

INTRO
VERSE x2
CHORUS
VERSE
INTRO
VERSE x2 on sax
CHORUS
VERSE
INTRO
VERSE x3
ENDING
Comments