The Living End - Witch Doctor Chords & Tabs

 

Witch Doctor Chords & Tabs

The Living End Chords & Tabs

Version: 1 Type: Bass Tab

Witch Doctor Bass Tab

   
Artist: The Living End
Song: Witch Doctor
Bassist: Scott Owen

Normal tuning

Intro
G--------------6-7-|
D------5---7578-8--|
A---345-65---------|
E-36---------------|

Verse
G-----------------6-7--|
D----------5--7578-8-8-|
A-------345-65---------|
E-3-3-36---------------|

Interlude "I see fire and i see rain..."
G------------------------------------------7--|
D--------------5-------5------------------7-7-|
A-1-1-1-10---5---5---5---5-1-1-1-10-3333-5----|
E--1-1-1---3-------3--------1-1-1-------------|
[ Tab from: http://www.guitartabs.cc/tabs/t/the_living_end/witch_doctor_btab.html ]
Chorus
G---------------------------------------|
D-2222------2222------5555--------------|
A------2222------3333------2222-333-555-|
E---------------------------------------|

Bridge
G-------------------------------------------------------------------|
D---------------------------------------------------3-3-3-3-3-3-3-3-|
A--3-3-3-3-3-3-3-3-5-5-5-5-5-5-5-5-6-6-6-6-6-6-6-6-5-5-5-5-5-5-5-5--|
E-5-5-5-5-5-5-5-5-7-7-7-7-7-7-7-7-8-8-8-8-8-8-8-8-------------------|

Then a lot of
G---
D---
A---
E-3-

Then
G-------------------|
D------5--------5---|
A---345-65---345-65-|
E-36-------36-------|