The Living End - Whos Gonna Save Us Chords & Tabs

 

Whos Gonna Save Us Chords & Tabs

The Living End Chords & Tabs

Version: 3 Type: Tab 0 ratings
1 star 2 stars 3 stars 4 stars 5 stars
comments

Whos Gonna Save Us Tab

yhis is a really great song by an amazing band

tuning-standard-EADGBe

1---------------------------------------------------------
2----8-9-8------8-9-8----------------------9p8------------
3-3/8-----10-888-----10-8-888--------8----8---------------
4----------------------------10-88-88-8h10----------------
5---------------------------------------------------------
6---------------------------------------------------------
[ Tab from: http://www.guitartabs.cc/tabs/t/the_living_end/whos_gonna_save_us_tab_ver_3.html ]
1----------------------------11-------11------------------
2--8-9-8-11-888-8-9-8-11b(13)--11b(13)--11>>>>\-----------
3-8-------------------------------------------------------
4---------------------------------------------------------
5---------------------------------------------------------
6---------------------------------------------------------

1--------------------
2--------------------
3-3-1-0--------------
4------0-2-0-4-0-----
5--------------------
6--------------------

reapeat the last part until the end of the solo start palm muting after a while
for questions e-mail me at horny_devil183@hotmail.com
Comments