The Living End - Whos Gonna Save Us Chords & Tabs

 

Whos Gonna Save Us Chords & Tabs

The Living End Chords & Tabs

Version: 1 Type: Bass Tab 0 ratings
1 star 2 stars 3 stars 4 stars 5 stars
comments

Whos Gonna Save Us Bass Tab

here it is.

tuning-standard-EADG

intro-- (guitar only,no bass))

verse 1

1----------------------------------------------------------------------|
2----------------------------------------------------------------------|
3-----5555-----5555----3333-------------000----2222-33333333333333333--|
4-3333----33333----0000----33333333-0000---0000------------------------|

1----------------------------------------------------------------------|
2----------------------------------------------------------------------|
3-----5555-----5555----3333-------------000----2222-3333333333333-555--|
4-3333----33333----0000----33333333-0000---0000------------------------|

chorus 1

1-----------------------------------------|
2-----------------------------------------|
3--55--55--33-------00-22-3-33-33-33-555--|
4-3--33--00--33-33-0--0-------------------|

verse 2

1----------------------------------------------------------------------|
2----------------------------------------------------------------------|
3-----5555-----5555----3333-------------000----2222-3333333333333-555--|
4-3333----33333----0000----33333333-0000---0000------------------------|

chorus 2
[ Tab from: http://www.guitartabs.cc/tabs/t/the_living_end/whos_gonna_save_us_btab.html ]
1-----------------------------------------------------|
2-----------------------------------------------------|
3--55--55--33-------00-22-3-33-33-33-33-33-33-33-555--|
4-3--33--00--33-33-0--0-------------------------------|

bridge


1-----------------------------------------------------------------------|
2-----8888----8888----6666-------------3333----5555-6666666666666--888--|
3-6666----6666----3333----66666666-3333----3333-------------------------|
4-----------------------------------------------------------------------|

1----------------------------------------------------------------------|
2----------------------------------------------------------------------|
3-----5555-----5555----3333-------------000----2222-3333333333333-555--|
4-3333----33333----0000----33333333-0000---0000------------------------|

verse 3

1------------------------------------------------------|
2--guitar only, then bass kicks in---------------------| reapeat the last
3---------------------------------------000----2222-3--| note 48 times
4-__________________________________0000---0000--------|

chorus 3

1-----------------------------------------|
2-----------------------------------------|
3--55--55--33-------00-22-3-33-33-33-555--|
4-3--33--00--33-33-0--0-------------------|

1---------------------------------------|
2---------------------------------------|
3--55--55--33------0-2-0------00--22-3--| reapeat the last note 32 times
4-3--33--00--33-0-3-----3-0-0---00------|


thats it!
peace out
Comments