The Living End - Whats On Your Radio Chords & Tabs

 

Whats On Your Radio Chords & Tabs

The Living End Chords & Tabs

Version: 1 Type: Tab

Whats On Your Radio Tab

   
Whats On Your Radio
By The Living End

Intro
E-------------------|
B-------------------|
G--99-99-9-9-9-99-9-| x2
D--99-99-9-9-9-99-9-|
A-------------------|
E-------------------|

E-------------------|
B-------------------|
G--99-99-99-99-99-99|
D--99-99-99-99-99-99|
A-------------------|
E-------------------|

Pre Verse
E----------------|
B----------------|
G-9xxx9----------|x4
D-9xxx9-10-9-12--|
A-7xxx7-10-9-12--|
E-------8-s7s10--|

Verse
E-------------------|
B-9----9----9-------|
G-9-99-9-99-9-99----|
D-9-99-9-99-9-99-etc|
A-7-77-7-77-7-77----|
E---pm---pm---pm----|

Pre Chorus
E------------|  |---------------------|
B------------|  |---------------------|
G-444444-55--|  |-444444-55-7777-8888-|
D-444444-55--|x2|-444444-55-7777-8888-|
A-222222s33--|  |-222222s33-5555-6666-|
E------------|  |---------------------|
[ Tab from: http://www.guitartabs.cc/tabs/t/the_living_end/whats_on_your_radio_tab.html ]
Chorus
E--------------------------|  |---------------------------3----------------|
B--------------------------|  |----------------------------3---------------|
G-9999999999999999-7777777-|  |-9999999999999999-7777777-5--5-9-9-9-12-9-9-|
D-9999999999999999-7777777-|x2|-9999999999999999-7777777-5----9-9-9-12-9-9-|
A-7777777777777777-5555555-|  |-7777777777777777-5555555-3----7-7-7-10-7-7-|
E--------------------------|  |--------------------------------------------|

Intro
Pre Verse
Verse
Pre Chorus
Chorus
Solo (Still Working On The Solo)
Pre Verse

Chorus (After Pre Verse)
E------------------||-----------------------------------------------|
B------------------||-----------------------------------------------|
G-9---9---9---7----||9-999-9-99-9-999-9-99-9-999--9-7-9-7-9-7-9-7---|
D-9---9---9---7----||9-999-9-99-9-999-9-99-9-999--9-7-9-7-9-7-9-7---|
A-7---7---7---5----||7-777-7-77-7-777-7-77-7-777--7-5-7-5-7-5-7-5---|
E------------------||--pm----pm---pm----pm---pm---------------------|

Chorus
E--------------------------|  |---------------------------3---|
B--------------------------|  |----------------------------3--|
G-9999999999999999-7777777-|  |-9999999999999999-7777777-5--5-|
D-9999999999999999-7777777-|x3|-9999999999999999-7777777-5----|
A-7777777777777777-5555555-|  |-7777777777777777-5555555-3----|
E--------------------------|  |-------------------------------|

Ending
E--------------|
B--------------|
G-9-9-9-12-9-9-|
D-9-9-9-12-9-9-|
A-7-7-7-10-7-7-|
E--------------|

Tabbed By Zombie Trent