The Living End - What Would You Do Chords & Tabs

 

What Would You Do Chords & Tabs

The Living End Chords & Tabs

Version: 2 Type: Tab 0 ratings
1 star 2 stars 3 stars 4 stars 5 stars
comments

What Would You Do Tab

   
Standard Tuning  E A D G B E    The Living End  What Would You Do?
 By:Brock

          D                                (Tapeover Part)
---------------------------------------------------------------
---------------------------------------------------------------
-------7-7-7-7--------------------------------7-77-7-7---------
-------7-7-7-7--ect--------------------------------------------
-------5-5-5-5-------------------------------------------------
---------------------------------------------------------------


     G                E          G        A      D
--------------------------------------------------------------------
--------------------------------------------------------------------
-------------------------------------------------7------------------
---5-5-5-5---------2-2-2-2----5-5-5-5--7-7-7-7---7------------------
---5-5-5-5--X2-----2-2-2-2X2--5-5-5-5--7-7-7-7---5------------------
---3-3-3-3---------0-0-0-0----3-3-3-3--5-5-5-5----------------------


[ Tab from: http://www.guitartabs.cc/tabs/t/the_living_end/what_would_you_do_tab_ver_2.html ]
Solo:
                                (Tremolo Ending)
-----------------------------------------------------------------
-7-7--5-5--3-3--2-2--3-3--2-2------------------------------------
-7-7--6-6--4-4--2-2--4-4--2-2---2--------------------------------
--------------------------------4--------------------------------X2
-----------------------------------------------------------------
-----------------------------------------------------------------

     G                 E min (Tremolo Ending)
-----------------------0-----------------------------------------
-----------------------0-----------------------------------------
-----------------------0-----------------------------------------
--5-5-5----------------2-----------------------------------------
--5-5-5--ect-----------2-----------------------------------------
--3-3-3----------------0-----------------------------------------


----------------------------------------10--------------------------
----------------------------------------10--------------------------
--------------------------------------------------------------------
---------------------------------/-11-------------------------------
--------2--5---------4--7---5---------------------------------------
--3-3----------5-5--------------------------------------------------

/=slide

Great Song By The Aussie's

Brock
Comments