The Living End - What Would You Do Chords & Tabs

 

What Would You Do Chords & Tabs

The Living End Chords & Tabs

Version: 1 Type: Tab 0 ratings
1 star 2 stars 3 stars 4 stars 5 stars
comments

What Would You Do Tab

   
-------------------------------------------------------------------------------
			     WHAT WOULD YOU DO? – The Living End
-------------------------------------------------------------------------------
Tabbed by: Germinator2000	
Email: germinator2000@hotmail.com

Tuning: Standard

e|---------------------------------------------------------------------------|
B|---------------------------------------------------------------------------|
G|----7-7-7------------------------------------------------------------------|
D|----7-7-7—(Etc)------------------------------------------------------------|
A|----5-5-5------------------------------------------------------------------|
E|---------------------------------------------------------------------------|
“I don’t know enough about…”

e|---------------------------------------------------------------------------|
B|---------------------------------------------------------------------------|
G|---------------------------------------------------------------------------|
D|----5----------------------------2-----------------------------------------|
A|----5-(x8)-----------------------2—(x4)------------------------------------|
E|----3----------------------------0-----------------------------------------|
“But I already fell in love with you”
[ Tab from: http://www.guitartabs.cc/tabs/t/the_living_end/what_would_you_do_tab.html ]
e|---------------------------------------------------------------------------|
B|---------------------------------------------------------------------------|
G|---------4-4-----------6-6------7------------------------------------------|
D|---------4-4-----------6-6------7------------------------------------------|
A|---------2-2-----------4-4------5------------------------------------------|
E|---------------------------------------------------------------------------|
“And if you knew, what would you do?”

e|---------------------------------------------------------------------------|
B|---------------------------------------------------------------------------|
G|--9---------------------------------7--------------------------------------|
D|--9-(x4)------7---------------------7-(x4)---------9-----------------------|
A|--7-----------7-(x4)----------------5--------------9-(x4)------------------|
E|--------------5------------------------------------7-----------------------|
“I’ve stopped myself from trying, I shouldn’t talk to you”

e|---------------------------------------------------------------------------|
B|---------------------------------------------------------------------------|
G|--9---------------------------4-----6----7---------------------------------|
D|--9-(x4)-----7----------5-----4-----6----7---------------------------------|
A|--7----------7-(x4)-----5-----2-----4----5---------------------------------|
E|-------------5----------3--------------------------------------------------|
“And now inside I’m dying, what would you do?”

That’s the basic format of this song. You should be able to nut it our from here.
The solo is just the melody, which is fairly easy to work out too.


| /  slide up
| \  slide down
| h  hammer-on
| p  pull-off
| ~  vibrato
| +  harmonic
| x  Mute note
===============================================================================
Comments