The Living End - West End Riot Chords & Tabs

 

West End Riot Chords & Tabs

The Living End Chords & Tabs

Version: 1 Type: Bass Tab 0 ratings
1 star 2 stars 3 stars 4 stars 5 stars
comments

West End Riot Bass Tab

Song: West End Riot
Band: The Living End
Bassist: Scott Owen
Tabbed by: James Bradley

This is a pretty sweet song.
I really like it.

> means strum

Intro:
G-----------------------------------------
D-222-------222---------------------------
A-----222-------222-2-0-------------------
E-----------------------3-2---------------

Chorus, Part One:
G--------0--------------------------------
D--2--------------------------------------
A----2-3-----------------------------------
E-----------------------------------------

Verse, Part One:
G-----------------------------------------
D-----------------------------------------
A----2-3----------------------------------
E--0-----3--------------------------------

Verse, Part Two:
G-----------------------------------------
D--2-----5-4------------------------------
A----2-3----------------------------------
E-----------------------------------------

"Becomes a battleground":
G-----------------------------------------
D-----------------------------------------
A-1--2-2---1--2-2---1--2-2--2-0-----------
E--------------------------------3-2------

Chorus, Part Two:
G-----7---7----8---8----------------------
D-----------------------------------------
A---5---5----6---6------------------------
E-----------------------------------------

Post-Chorus:
G-------------------------0-2-0-----------
D----0--4-3-2-----0-----2----------0-2----
A--2----------2-----2-3----------2--------
E---------------0-------------------------
[ Tab from: http://www.guitartabs.cc/tabs/t/the_living_end/west_end_riot_btab.html ]
G-----------------------------------------
D-----7------9-----10---------------------
A---------------------7---7---------------
E-5-5----7-7---8-8------7-----------------

Bridge:
G-----------------------------------------
D-----------------------------------------
A------2-2-3-3-5-5-----5>---5>----5>------
E--3-3--------------5>----5>---5>----7>---

Going into Guitar solo:
G-----------------------------------------
D-2-----0-1-------------------------------
A---2-3-----------------------------------
E-----------------------------------------

Guitar Solo, Part One:
G-----------------------------------------
D--5>-3>-1>-0>----------------------------
A-----------------------------------------
E-----------------------------------------

Guitar Solo, Part Two:
G-----------------------------------------
D----0>-1>-3>-----------------------------
A-3>--------------------------------------
E-----------------------------------------

End of Solo:
G-----------------------------------------
D--0>-1>----------------------------------
A-----------------------------------------
E-----------------------------------------

"There's a man who was born in the west...":
G-----------------------------------------
D--2-2---------0-0------------------------
A------2-2-3-3----------------------------
E-----------------------------------------

"...fond memories":
G-----------------------------------------
D-----------------------------------------
A-----0-----------------------------------
E---3---0---------------------------------
Comments