The Living End - Wake Up Chords & Tabs

 

Wake Up Chords & Tabs

The Living End Chords & Tabs

Version: 1 Type: Tab

Wake Up Tab

   
-----------------------------------------------------------------------

			     WAKE UP – The Living End
-----------------------------------------------------------------------

Tabbed by: benh128
Email: benh128@hotmail.com

Alright, this is another new song by the living end off their new album
“state of emergency,” and as I couldn’t find any tabs for it, I decided
to write one! This is my first tab, so go easy on me :) any criticism,
suggestions, or whatever, please email me!

| /  slide up
| \  slide down
| h  hammer-on
| p  pull-off
| +  harmonic
| x  Mute note

Intro:

e|-----------------------------------------------------|
B|-----------------------------------------------------|
G|-----4--2---------2-(0)--------4--2---------2--------|
D|---0-------4----2----5--4----0-------4----2----2--4--|
A|-2(5)----------------------2(5)----------------------|
E|--------------0-------------------------0------------|

e|-------------------------------------------|
B|-------------------------------------------|
G|-----4--2---------2-(0)--------4--2--------|
D|---0-------4----2----5--0----0-------2--4--|
A|-2(5)------------------(5)-2(5)------------|
E|--------------0----------------------------|

The 1st verse is the same as the intro. After one repeat of this, the
lyrics come in, so just palm mute that bit. The lyrics last for two
repeats of that riff, then you play this chord before the chorus.

Pre-chorus:

e|----------|
B|----------|
G|-33333333-|
D|-44444444-|
A|-11111111-|
E|----------|

Chorus:

   B        D        A        F#            B
e|--------------------------------------------------------------------|
B|--------------------------------------------------------------------|
G|-44444444-77777777------------------------4444444444444444----------|
D|-44444444-77777777-77777777-44444444-(x2)-4444444444444444----------|
A|-22222222-55555555-77777777-44444444------2222222222222222----------|
E|-------------------55555555-22222222--------------------------------|

Keep on playing that B until the second verse starts.

2nd Verse:

   B        E        B        A        B        G
e|-------------------------------------------------------|
B|-------------------------------------------------------|
G|-44444444----------44444444-22222222-44444444----------|
D|-44444444-22222222-44444444-22222222-44444444-55555555-|
A|-22222222-22222222-22222222-00000000-22222222-55555555-|
E|----------00000000----------------------------33333333-|

  ^All palm muted

   B
e|-----------------------------------|
B|-----------------------------------|
G|-4444444444444444------------------|
D|-4444444444444444-------(x2)-------|
A|-2222222222222222------------------|
E|-----------------------------------|

  ^All palm muted

On the repeat, cut off half of the B’s, and play the pre-chorus.

Chorus:
[ Tab from: http://www.guitartabs.cc/tabs/t/the_living_end/wake_up_tab.html ]
   B        D        A        F#            B
e|--------------------------------------------------------------------|
B|--------------------------------------------------------------------|
G|-44444444-77777777------------------------4444444444444444----------|
D|-44444444-77777777-77777777-44444444-(x2)-4444444444444444----------|
A|-22222222-55555555-77777777-44444444------2222222222222222----------|
E|-------------------55555555-22222222--------------------------------|

Bridge:

   Bm
e|----------------------|
B|-3--------------------|
G|-4--x-x-x-x-x-x-------|
D|-4--x-x-x-x-x-x-(x6)--|
A|-2--x-x-x-x-x-x-------|
E|----------------------|

On the third one of those, this little harmonic thing comes in over the
top. I think there’s a few more that are played, but I didn’t find them.

e|-------------------------------------+7-+7-+7-----------------------|
B|-+12-+12-+12--+7-+7-+7--+12-+12-+12---------------------------------|
G|--------------------------------------------------------------------|
D|--------------------------------------------------------------------|
A|--------------------------------------------------------------------|
E|--------------------------------------------------------------------|

   B        G        A        F#
e|----------------------------------------------|
B|----------------------------------------------|
G|-44444444-------------------------------------|
D|-44444444-55555555-77777777-44444444-(x2)-----|
A|-22222222-55555555-77777777-44444444----------|
E|----------33333333-55555555-22222222----------|

e|--------------------------------------|
B|--------------------------------------|
G|-4444444444444444-3333333333333333----|
D|-4444444444444444-4444444444444444----|
A|-2222222222222222-1111111111111111----|
E|--------------------------------------|

Repeat the intro/first verse again.

e|-----------------------------------------------------|
B|-----------------------------------------------------|
G|-----4--2---------2-(0)--------4--2---------2--------|
D|---0-------4----2----5--4----0-------4----2----2--4--|
A|-2(5)----------------------2(5)----------------------|
E|--------------0-------------------------0------------|

e|--------------------------------------------------|
B|--------------------------------------------------|
G|-----4--2---------2-(0)--------4--2---------------|
D|---0-------4----2----5--0----0-------2--4----(x3)-|
A|-2(5)------------------(5)-2(5)-------------------|
E|--------------0-----------------------------------|

Then this bit starts when the children start singing..

e|-------2--------0-3----------2----------0--------|
B|-----3---------(5)---------3----------2----------|
G|-4-4--------4-4--------4-4--------3-3------------|
D|------------------------------------------(x3)---|
A|-------------------------------------------------|
E|-------------------------------------------------|

End on Bm

e|--2---|
B|--3---|
G|--4---|
D|--4---|
A|--2---|
E|------|

Alright, that’s it! I hope you had a good time reading my tab! Again,
any criticism or suggestions, just email me, benh128@hotmail.com!

=======================================================================