The Living End - Tainted Love Chords & Tabs

 

Tainted Love Chords & Tabs

The Living End Chords & Tabs

Version: 3 Type: Bass Tab 0 ratings
1 star 2 stars 3 stars 4 stars 5 stars
comments

Tainted Love Bass Tab

-----------------------------------------------------------------------
			  TAINTED LOVE - Living End
-----------------------------------------------------------------------
Tabbed By : SBmike
e-mail: mike@blackstarpromotions.com
Tuning: Down  step
There are slight variations but this is the pretty much it. (Mail me if you find anything diffrent)

Intro (x1)
	G|---------------------------------------------------------|
	D|---------------------------------------------------------|
	A|---------------------------------------------------------|
	E|---4--4----------4--4------------------------------------|
[ Tab from: http://www.guitartabs.cc/tabs/t/the_living_end/tainted_love_btab_ver_3.html ]
Chorus (x1)
	G|------------------------------3456-----------------------|
	D|6---6-------------696-696-3456---------------------------|
	A|-6-6-6---696-696-7---7---4-------------------------------|
	E|--4---467---7---7----------------------------------------|

Verse 1 (x12)
	G|---------------------------------------------------------|
	D|---------------------------------------------------------|
	A|------77-------------------------------------------------|
	E|44-77----79----------------------------------------------|

Chorus (x1)
Verse 1 (x9)

Bridge (x1)
	G|----------------|
	D|----------------|
	A|----------------|
	E|4444-7777-------|

Chorus (x1)
Verse 1 (x6)
Chorus (x1)
Verse 1 (x4)

Verse pt 2 (x15)
	G|----------------|
	D|----------------|
	A|--------7-------|
	E|4---7-------7-9-|

After the 15th time play once: 
	E|4\0-------------|

Verse 1(x3)
Bridge (x1)
Chorus (x1)
Verse 1(x4)
END	
E|44-------------|

======================================================================
 \  slide down
Comments