The Living End - Tabloid Magazine Chords & Tabs

 

Tabloid Magazine Chords & Tabs

The Living End Chords & Tabs

Version: 1 Type: Bass Tab

Tabloid Magazine Bass Tab

   
Tabloid Magazine

The Living End

Submitted By: Pete (whatsername_223@hotmail.com


You should play this song with your fingers to get the right sound but it still sounds good with a pick.

VERSE (1)

G|---------------| x2  G|----------------------------------------|
D|-----------020-|     D|---------------2222222222222224555555555|
A|2-2-----------0|     A|2-2--------0000-------------------------|
E|---22223333----|     E|---22223333-----------------------------|

PRE-CHORUS (1)

G|----------------------|
D|----------------------|
A|0500-1222222222-55----|
E|------------------5500|

CHORUS

G|-------------------------------------------------------| 2 times
D|----------------444444444444444------------------------|
A|---------------7---------------4555555555555555—-457-77|
E|555555555555555--------------------------------55------|

G|---------------------------------|
D|-----------------544-432---------|
A|55-54577-76544-45-------22-2-----|
E|----------------------------23-55|

VERSE (1)

PRE-CHORUS (1)

CHORUS

VERSE (2)
[ Tab from: http://www.guitartabs.cc/tabs/t/the_living_end/tabloid_magazine_btab.html ]
G|---------------| 2 times G|---------------|
D|-----------020-|         D|---------------|
A|2-2-----------0|         A|2-2--------0000|
E|---22223333----|         E|---22223333----|

G|-----------------------------------------------------------------|
D|22222222222222245555555555555554222222222222222455555555555555552|
A|-----------------------------------------------------------------|
E|-----------------------------------------------------------------|

BASS TAKES A BREAK

BRIDGE

G|------------------------------------------------------------|
D|------------------------------------------------------------|
A|--00-------5-57-75-5---55---00-------5-57-755-5---55---00---|
E|20--020-5-5---------5-5---20--020-5-5----------5-5---20--020|

G|-----------------------------|
D|---------------4~------------|
A|5~---7~---4~--------2~---2---|
E|--------------------------23~|

VERSE (1)

PRE-CHORUS (2)

G|--------|
D|--------|
A|00001111|
E|--------|

VERSE (3)

G|----------------| 4 times G|---------------| 3 times
D|----------------|         D|-----------020-|
A|2222------------|         A|2-2-----------0|
E|----222233335555|         E|---22223333----|

FINISH WITH

G|-------------------|
D|-----------020-----|
A|2-2-----------0---2|
E|---22223333--------|