The Living End - Sunday Bloody Sunday Chords & Tabs

 

Sunday Bloody Sunday Chords & Tabs

The Living End Chords & Tabs

Version: 1 Type: Bass Tab 0 ratings
1 star 2 stars 3 stars 4 stars 5 stars
comments

Sunday Bloody Sunday Bass Tab

                                 -THE LIVING END-
                            Sunday Bloody Sunday Cover
                                   Tabbed By
                              manumick20@yahoo.com

This song pretty much has 3 parts in it. Here they are

g----------------------------------------|
d----------------------------------------|
a--3--------------5-----------3----------|
e-------------------------------------5--|
   "how long......
[ Tab from: http://www.guitartabs.cc/tabs/t/the_living_end/sunday_bloody_sunday_btab.html ]
Main Riff:
g-----------------------------|
d-----------------------------|
a-0-0-0--3-3-3----------------|repeat lots of time :)
e--------------1-1-1---1-1-1--|
  (this bit is play almost through out the whole song)

Outro:
g---------------------------------------------------------------|
d---------------------------------------------------------------|
a-0-0-0--3-3-3-----------------------------------------------0--|
e--------------1-1--1-1--1-1--1-1-1-----1-1--1-1--1-1--1-1-1----|
Comments