The Living End - Strange Chords & Tabs

 

Strange Chords & Tabs

The Living End Chords & Tabs

Version: 1 Type: Tab 0 ratings
1 star 2 stars 3 stars 4 stars 5 stars
comments

Strange Tab

   
                         -The Living End- 
                              Strange 
                      Tabbed By Michael Fryar
                       manumick20@yahoo.com

               Solo By my best mate Jordan Colley
                 Thank him at magoova@hotmail.com

                 
                
Verse: *pause while bass plays*
                       
and when guitar comes in play:
 
  B       C            
e---------------------|
b---------------------|
g-4-4-4-4-5-5-5-5-----|
d-4-4-4-4-5-5-5-5-(x3)|
a-2-2-2-2-3-3-3-3-----|
e---------------------|


this next bit,for the A chord,bar
the 2nd fret with your 2nd finger
to make it easier.Cos then you can switch
to the A# much more quicker.

 A   A#  A   A#  A A# ect
e--------------------------------|
b--------------------------------|
g-2-2-3-3-2-2-3-3-2-3-2-3-2-3-2--|
d-2-2-3-3-2-2-3-3-2-3-2-3-2-3-2--|
a-0-0-1-1-0-0-1-1-0-1-0-1-0-1-0--|
e--------------------------------|


Chorus:         
       
  E         B          A                    
e-----------7-7-7-7-7--5-5-5-5-5--|
b-9-9-9-9-9-7-7-7-7-7--5-5-5-5-5--|
g-9-9-9-9-9-8-8-8-8-8--6-6-6-6-6--|
d-9-9-9-9-9-9-9-9-9-9--7-7-7-7-7--|
a-7-7-7-7-7-9-9-9-9-9--7-7-7-7-7--|
e-----------7-7-7-7-7--5-5-5-5-5--|


    B          E          
e-7-7-7-7-7------------|
b-7-7-7-7-7--9-9-9-9-9-|
g-8-8-8-8-8--9-9-9-9-9-|
d-9-9-9-9-9--9-9-9-9-9-|
a-9-9-9-9-9--7-7-7-7-7-|
e-7-7-7-7-7------------|


  B          C#                G#
e-7-7-7-7-7-------------9-9----------4----|
b-7-7-7-7-7------------9--9---------4-----|
g-8-8-8-8-8----------10------------5------|
d-9-9-9-9-9--11----11---------6---6-------|
a-9-9-9-9-9--11--11-----------6--6--------|
e-7-7-7-7-7--9--9----------9--4-4------4--|

  A            B            E  D# C# B           
e-5-5-5-5-5-5--7-7-7-7-7-7-------------|
b-5-5-5-5-5-5--7-7-7-7-7-7--9--8--6--4-|
g-6-6-6-6-6-6--8-8-8-8-8-8--9--8--6--4-|
d-7-7-7-7-7-7--9-9-9-9-9-9--9--8--6--4-|
a-7-7-7-7-7-7--9-9-9-9-9-9--7--6--4--2-|
e-5-5-5-5-5-5--7-7-7-7-7-7-------------|


  A            B            E
e-5-5-5-5-5-5--7-7-7-7-7-7-------|
b-5-5-5-5-5-5--7-7-7-7-7-7--9----|
g-6-6-6-6-6-6--8-8-8-8-8-8--9----|
d-7-7-7-7-7-7--9-9-9-9-9-9--9----|
a-7-7-7-7-7-7--9-9-9-9-9-9--7----|
e-5-5-5-5-5-5--7-7-7-7-7-7-------|

Verse

Chorus

Pre Solo: 


Guitar 1:
 These are the slow chords for the jazz bit. 
 The solo can just be arpegios: 
 mag, min, mag, min. simple as that... 
   
 The Timing is 4/4
e--------|--------|--------|--------|--------|
b--10----|--10--10|--9-----|--9--9--|--8-----|
g--11----|--11--11|--9-----|--9--9--|--9-----|
d--11----|--11--11|--9-----|--9--9--|--9-----|
a--x-----|--x---x-|--x-----|--x--x--|--x-----|
e--10----|--10--10|--9-----|--9--9--|--8-----|

e--------|--------|--------|
b--8--8--|--7-----|--7--7--|
g--9--9--|--7-----|--7--7--|
d--9--9--|--7-----|--7--7--|(x2)
a--x--x--|--x-----|--x--x--| 
e--8--8--|--7-----|--7--7--|


Guitar 2:

e----------------5p4--4-4-5/7-5-5-7p5p4-5p4--------|
b------------5h7----------------------------7p5h7--|
g--7h5---5h7---------------------------------------|
d------8-------------------------------------------|
a--------------------------------------------------|
e--------------------------------------------------|

e----------------------------------|
b--5-8p7p5h7--8p7p5---5------------|
g-------------------7---7-5--------|
d---------------------------7-8b9--|
a----------------------------------|
e----------------------------------|

e--7-9-10-9-7----7----------------13-12-10--------|
b--7----------10---10p8p7-------7----------13-10--|
g--7----------------------9-7-9-------------------|
d-------------------------------------------------|
a-------------------------------------------------|
e-------------------------------------------------|
[ Tab from: http://www.guitartabs.cc/tabs/t/the_living_end/strange_tab.html ]
e----------------------------------------------------------------|
b--10h11-11p10-11p10---------------------------------------------|
g--------------------12-10---------------------------------------|
d------------------------------------------12----12--------------|
a------------------------------------12-14----14----14-12--------|
e---------------------------12-14-15----------------------15-12--|

e-----11--14-11-----------------15-14-12-----------------|
b-----11--------14-11--------14----------15-13-12----12--|
g-----11--------------13--14----------------------14-----|
d--14----------------------------------------------------|
a--------------------------------------------------------|
e--------------------------------------------------------|

 This is the main solo played in pentatonic
 and E major in double time: 

e12-12|----12----12|----12----12|------------|
b-----|--12----12--|--12----12--|------------|
g-----|14^---14^---|14^---14^---|14^-14-12-14|
d-----|------------|------------|------------|
a-----|------------|------------|------------|
e-----|------------|------------|------------|


e12---12---------|-----------------|
b12^--12^12-12-12|--12-9--10-9-----|
g----------------|------------11-8-|
d----------------|9-----9---------9|
a----------------|-----------------|
e----------------|-----------------|


e-------------------------------|-----------|
b5-p0-0--7-p0-0--9-p0-0--10-p0-0|9--10--12--|
g-------------------------------|-----------|
d-------------------------------|-----------|
a-------------------------------|-----------|
e-------------------------------|-----------|

e----------|---------|
b10-9-7-9-7|---------|
g----------|9-8-6-8--|
d----------|---------|
a----------|---------|
e----------|---------|

e-------------------------|7----7-9-7-9-11-9-11-12|
b------7---7-9-7-9-10-9-10|--10-------------------|
g9-8-9---9----------------|-----------------------|
d-------------------------|-----------------------|
a-------------------------|-----------------------|
e-------------------------|-----------------------|


e14^---14^|14^-14-12-14-12|
b---------|---------------|
g---------|---------------|
d---------|---------------|
a---------|---------------|
e---------|---------------|
          
     No real rhythm here, 
  just pull off as fast as you can for 2 bars
e------0-0-|3-p2-p0---------------------------------|
b----------|--------3-p2-p0---------3-p2-p0---------|
g----------|----------------3-p2-p0---------3-p2-p0-|
d----------|----------------------------------------|
a----------|----------------------------------------|
e----------|----------------------------------------|
                                    E
e----------------------------------|0
b----------------------------------|0
g--------3-p2-p0-------------------|1 
d-2-p1-p0---------2-p1-p0----------|2
a------------------------2-p1-p0---|2
e----------------------------------|0

Verse

Outro/Last Chorus: 

  E         B          A                    
e-----------7-7-7-7-7--5-5-5-5-5-:-|
b-9-9-9-9-9-7-7-7-7-7--5-5-5-5-5-:-|
g-9-9-9-9-9-8-8-8-8-8--6-6-6-6-6-:-|
d-9-9-9-9-9-9-9-9-9-9--7-7-7-7-7-:-|
a-7-7-7-7-7-9-9-9-9-9--7-7-7-7-7-:-|
e-----------7-7-7-7-7--5-5-5-5-5-:-|

    B          E          
e-7-7-7-7-7------------|
b-7-7-7-7-7--9-9-9-9-9-|
g-8-8-8-8-8--9-9-9-9-9-|
d-9-9-9-9-9--9-9-9-9-9-|
a-9-9-9-9-9--7-7-7-7-7-|
e-7-7-7-7-7------------|
     
   B          C#               G#
e-7-7-7-7-7-------------9-9----------4----|
b-7-7-7-7-7------------9--9---------4-----|
g-8-8-8-8-8----------10------------5------|
d-9-9-9-9-9--11----11---------6---6-------|
a-9-9-9-9-9--11--11-----------6--6--------|
e-7-7-7-7-7--9--9----------9--4-4------4--|

  A            B            E  D# C# B          
e-5-5-5-5-5-5--7-7-7-7-7-7-------------|
b-5-5-5-5-5-5--7-7-7-7-7-7--9--8--6--4-|
g-6-6-6-6-6-6--8-8-8-8-8-8--9--8--6--4-|
d-7-7-7-7-7-7--9-9-9-9-9-9--9--8--6--4-|
a-7-7-7-7-7-7--9-9-9-9-9-9--7--6--4--2-|
e-5-5-5-5-5-5--7-7-7-7-7-7-------------|


  A            B            E  D# C# B
e-5-5-5-5-5-5--7-7-7-7-7-7---------------|
b-5-5-5-5-5-5--7-7-7-7-7-7--9--8--6--4---|
g-6-6-6-6-6-6--8-8-8-8-8-8--9--8--6--4---|
d-7-7-7-7-7-7--9-9-9-9-9-9--9--8--6--4---|
a-7-7-7-7-7-7--9-9-9-9-9-9--7--6--4--2---|
e-5-5-5-5-5-5--7-7-7-7-7-7---------------|

   A  B  E
e--5--7-----|
b--5--7--9--|
g--6--8--9--|
d--7--9--9--|
a--7--9--7--|
e--5--7-----|
Comments