The Living End - Silent Victory Chords & Tabs

 

Silent Victory Chords & Tabs

The Living End Chords & Tabs

Version: 1 Type: Tab 0 ratings
1 star 2 stars 3 stars 4 stars 5 stars
comments

Silent Victory Tab

   
                   -THE LIVING END-
                    Silent Victory
             
                Tabbed By Michael Fryar
                 manumick20@yahoo.com
       And thanks to Martin Rice, gf_14@hotmail.com
      for that last line of the solo. Thanks mate :o)

s=slide
x=dead note
h=hammer on
p=pull off



Intro:

e--s9--9--3--3-3p2---------------|
b--s9--9--3--3-----3-----3--2----|
g----------------------2----2----|
d--------------------3-----------|(x2)
a---0-----0-----------------0----|
e--------------------------------|


Verse:

   G  A  E
e---------------|
b--3------------|
g--0--2---------|
d--0--2--2--(x5)|
a-----0--2------|
e--3-----0------|

    E               G A E               
e-----------------------------------|
b-------------------3---------------|
g-------------------0-2-------------|
d-2-2-2-2-2-2-2-2-2-0-2-2-(x4)------|
a-2-2-2-2-2-2-2-2-2---0-2-----------|
e-0-0-0-0-0-0-0-0-0-3---0-----------|

   B                  A E      F#m
e------------------------------2--2--2--2--2--2--2--2|
b------------------------------2--2--2--2--2--2--2--2|
g-4-4--4-4-4-------------------2--2--2--2--2--2--2--2|
d-4-4--4-4-4-------4--2---(x3)-4--4--4--4--4--4--4--4|
a-2-2--2-2-2-2-5h6----0-2------4--4--4--4--4--4--4--4|
e-----------------------0------2--2--2--2--2--2--2--2|


e-----------------------|
b-----------------------|
g-----------------------|
d-6-6-6s4-6-6--6-6-4-6--|
a-6-6-6s4-6-6--6-6-4-6--|
e-----------------------|


Chorus:

   C#     B  A  E  B         C#     B  A                 
e-------------------------------------------------|
b-------------------------------------------------|
g--6------4--2-----4---------6------4--2-2-2-2----|
d--6------4--2--2--4---------6------4--2-2-2-2----|
a--4-7-4--2--0--2--2---------4-7-4--2--0-0-0-0----|
e---------------0---------------------------------|
   She said...                                    


   C# A  E  B    G E         G E         G  E        G  E
e----------------------------------------------------------|
b----------------------------------------------------------|
g--6--2-----4----------------------------------------------|
d--6--2--2--4----5-2-2-x-x-x-5-2-2-x-x-x-5-2-2-x-x-x-5-2-2-|
a--4--0--2--2----5-2-2-x-x-x-5-2-2-x-x-x-5-2-2-x-x-x-5-2-2-|
e--------0-------3-0-0-x-x-x-3-0-0-x-x-x-3-0-0-x-x-x-3-0-0-|
  One more....   Victory!....Victroy!...

Verse

Chorus

Pre Solo:

     A
e-----------------------------------|
b-----------------------------------|
g-2-2-2-2-2-2-2---------------------|
d-2-2-2-2-2-2-2---------------------|
a-0-0-0-0-0-0-0-ect-with Whammy Bar-|
e-----------------------------------|


e----------------------------------------|
b--5-5--9-9--10-10------12-15-12-15-15^--|
g--4-4--7-7--9--9---s14------------------|
d--2-2--5-5--7--7------------------------|
a----------------------------------------|
e----------------------------------------|


Main Solo:
[ Tab from: http://www.guitartabs.cc/tabs/t/the_living_end/silent_victory_tab.html ]
e-------------------------------------------|
b-10^-10^-10^-------------------10--7-------|
g--9^--9^--9^-7-------7h9p7-s11-----7-------|
d-----------------7p9------------------7----|
a-------------------------------------------|
e-------------------------------------------|


e----13^-13^---------17-19-------------------------------|
b------------15-17^--------17*^*--15-17-15-17^(half bend)|
g---------------------------------15-15-15---------------|
d-10-----------------------------------------------------|
a--------------------------------------------------------|
e--------------------------------------------------------|


e-----10-10-12^(half)-10-12-10-----0---|
b-s11------------------------------0---|
g----------------------------------0---|
d--------------------------------------|
a-------------------------------0------|
e--------------------------------------|


e-----------------------------------------------|
b-----------------------------------------------|
g--------------------------------12-------------|
d--------10----------10s12-15-12----12-15-12-14-|
a-s10-13----13-10-13----------------------------|
e-----------------------------------------------|


e-------------------------|
b-------------------------|
G-12-14-12-12-14s16-17p15-|
d-------------------------|
a-------------------------|
e-------------------------|



Last Verse:


   B                  A E      G  Bm  Bb      
e------------------------------3--2-----------------------|
b------------------------------3--3--3-3-3-3-3-3-3-3-3-3-3|
g-4-4--4-4-4-------------------0--4--3-3-3-3-3-3-3-3-3-3-3|
d-4-4--4-4-4-------4--2---(x3)-0--4--3-3-3-3-3-3-3-3-3-3-3|
a-2-2--2-2-2-2-5h6----0-2---------2--1-1-1-1-1-1-1-1-1-1-1|
e-----------------------0------3--------------------------|


Last Chorus: (key change=now in Eb)

  Eb      C# B F#  C#    Eb      C#    B
e-------------------------------------------------|
b-------------------------------------------------|
g-8-------6--4-----6-----8-------6--4-4-4-4-4-4-4-|
d-8-------6--4--4--6-----8-------6--4-4-4-4-4-4-4-|
a-6-10-6--4--2--4--4-----6-10-6--4--2-2-2-2-2-2-2-|
e---------------2---------------------------------|
                         
    C#     A     E     B
e---------------------------------|
b---------------------------------|
g--6-6-6--2-2-2-------4-4-4-------|
d--6-6-6--2-2-2-2-2-2-4-4-4-(x2)--|
a--4-4-4--0-0-0-2-2-2-2-2-2-------|
e---------------0-0-0-------------|

  G E         G E         G E         G E A
e-------------------------------------------|
b-------------------------------------------|
g-----------------------------------------2-|
d-5-2-2-x-x-x-5-2-2-x-x-x-5-2-2-x-x-x-5-2-2-|
A-5-2-2-x-x-x-5-2-2-x-x-x-5-2-2-x-x-x-5-2-0-|
e-3-0-0-x-x-x-3-0-0-x-x-x-3-0-0-x-x-x-3-0---|

  E  A  E
e------------------------|
b-3--------5-5-5-5-5-5---|
g-0--2-----4-4-4-4-4-4---|
d-0--2--2--2-2-2-2-2-2---|(repeat that section as needed)
a----0--2----------------|
e-3-----0----------------|

End on E
Comments