The Living End - Second Solution Chords & Tabs

 

Second Solution Chords & Tabs

The Living End Chords & Tabs

Version: 2 Type: Tab 0 ratings
1 star 2 stars 3 stars 4 stars 5 stars
comments

Second Solution Tab

   
                   -The Living End-
                    Second Solution
                Tabbed By Michael Fryar
                 manumick20@yahoo.com


~=bend
p=pull-off
h=hammer-on
s=slide


Intro#1: 

  over Bm
e---------2-2--------------------|
b--------3--3--------------------|
g-4-4---4---4------------------4-|
d-4-4--4----4-repeat as needed-4-|
a-2-2-2-----2------------------2-|
e--------------------------------|

Intro#2:
  
  B    F#   G    C
e---------------------|
b---------------------|
g-4-4------------5-5--|
d-4-4--4-4--5-5--5-5--|(x4)
a-2-2--4-4--5-5--3-3--|
e------2-2--3-3-------|


Verse: 
 
  B                     C F#
e---------------------------|
b---------------------------|
g-4-4-4-4-4-4-4-4-4-4-4-5---|
d-4-4-4-4-4-4-4-4-4-4-4-5-4-|(x3)
a-2-2-2-2-2-2-2-2-2-2-2-3-4-|
e-------------------------2-|

  B   a   G   F#  G   a   B F#
e-----------------------------2---2---2---2-|
b-----------------------------2---2---2---2-|
g-4-4-2-2-------------2-2-4---3---3---3---3-|
d-4-4-2-2-5-5-4-4-5-5-2-2-4-4-4-4-4-4-4-4-4-|
a-2-2-0-0-5-5-4-4-5-5-0-0-2-4-4-4-4-4-4-4-4-|
e---------3-3-2-2-3-3-------2-2-2-2-2-2-2-2.ect(F#)

    
Chorus:  
        
  Bm               Em
e-------2-2---3-------7-7---------7-7-|
b------3--3---3------8--8--------8--8-|
g-4---4---4-4-4-----9---9-9-9---9---9-|
d-4--4----4-4-4----9----9-9-9--9----9-|
a-2-2-----2-2-2---7-----7-7-7-7-----7-|
e-------------------------------------|

  Bm             F#
e-------2-2---2----2---2---2---2-|
b------3--3---3----2---2---2---2-|
g-4---4---4-4-4----3---3---3---3-|
d-4--4----4-4-4--4-4-4-4-4-4-4-4-|
a-2-2-----2-2-2--4-4-4-4-4-4-4-4-|
e----------------2-2-2-2-2-2-2-2-|

  Bm              G               d
e-------2-2---3----------------------------|
b------3--3---3------------12-12-------7-7-|
g-4---4---4-4-4---12-----12---12--7---7--7-|
d-4--4----4-4-4---12---12---------7--7-----|
a-2-2-----2-2-2---10-10-----------5-5------|
e------------------------------------------|

  F#
e---------------|
b---------------|
g---------------|
d-4-4-4-4-4-4-4-|
a-4-4-4-4-4-4-4-|
e-2-2-2-2-2-2-2-|
 /palm muted...\

Then play Bm just likein the intro,

Verse

Chorus
[ Tab from: http://www.guitartabs.cc/tabs/t/the_living_end/second_solution_tab_ver_2.html ]
Pre Solo: 
          B   a   G  F#   G   a   B
e-7-7-7-7----------------------------|
b-7-7-7-7----------------------------|
g------------------------------------|
d---------9-9-7-7-5-5-4-4-5-5-7-7-9--|
a---------9-9-7-7-5-5-4-4-5-5-7-7-9--|
e---------7-7-5-5-3-3-2-2-3-3-5-5-7--|


Solo:

e----------------:-----7h9p7----------|
b-----9~-9-9-7---:---8-------10-8-7---|
g-----9~-9-9-7---:-9----------------9-|
d-7-9----------9-:--------------------|
a----------------:--------------------|
e----------------:--------------------|


e--------14-13-12-:-7-10-7-----------------------|
b-----12----------:--------10-7------------------|
g9s12-------------:-------------9-7---9-7--------|
d-----------------:-----------------9-----9-7-9-9|
a-----------------:------------------------------|
e-----------------:------------------------------|

e-------------------------------------------|
b----------------------------------------14-|
g-------------------------------------15----|
d-------------8-8-8-11-11-11-14-14-16-------|
a-7-7-7-9-9-9-------------------------------|
e-------------------------------------------|


e-7-10~p7-10p7----7------------------------------|
b-7------------10---10p7-10p7---7----------------|
g-----------------------------9---9p7-9p7--------|
d-----------------------------------------9-h9p7-|
a------------------------------------------------|
e------------------------------------------------|

e-----------------------------10-----10----|
b-----------------------------10-----10----|
g-------------------------12~----12~----12-|
d-5p4---5p4-----------------------------12-|
a-----7-----7-5p4---5p4--------------------|
e-----------------7-----7------------------|


e--------------------------------|
b-----------4~-------------------|
g-----------4~-------------------|
d-4-4-4-4-4----4-4-4-4-4---------|
a-4-4-4-4-4----4-4-4-4-4---------|
e-2-2-2-2-2----2-2-2-2-2-2-2-2-2-|

Intro#2 (x4)

Verse

Chorus

then play the: Bm - G - F# (x12)
but the first few times its finger picked.
Any way of finger picking those chords sounds good.


Outro:

  B   a   G   F#  G   a   B 
e---------------------------|
b---------------------------|
g-4-4-2-2-------------2-2-4-|
d-4-4-2-2-5-5-4-4-5-5-2-2-4-|
a-2-2-0-0-5-5-4-4-5-5-0-0-2-|
e---------3-3-2-2-3-3-------|


Tabbed By Michael Fryar  -manumick20@yahoo .com
Or ICQ-67053832.
Comments