The Living End - Save The Day Chords & Tabs

 

Save The Day Chords & Tabs

The Living End Chords & Tabs

Version: 2 Type: Tab 0 ratings
1 star 2 stars 3 stars 4 stars 5 stars
comments

Save The Day Tab

   
                  -The Living End-
                    Save The Day  
              Tabbed By Michael Fryar 
                manumick20@yahoo.com
                    icq-67053832



^=bend
()=harmonic
h=hammer on
p=pull off


Intro:

  Am             G   D        D#   C
e-------3-0---------------------------|
b-1-1-1----1--1-----------------------|
g-2-2-2-----2-2-----7-7-7^-7--8----5--|(x2)
d-2-2-2-------2--5--7-7-7^-7--8----5--|
a-0-0-0-------0--5--5-5-------6----3--|
e----------------3--------------------|


Verse:
  A
e------------------------------------------|
b------------------------------------------|
g-2-2-2--2-2-2--2-2-2--2-2-2--2-2-2--2-2-2-|
d-2-2-2--2-2-2--2-2-2--2-2-2--2-2-2--2-2-2-|
a-0-0-0--0-0-0--0-0-0--0-0-0--0-0-0--0-0-0-|
e------------------------------------------|
 /p a l m    m u t e d....................\

          A
e----------------------------------------|
b----------------------------------------|
g---------2--2-2-2--2-2-2--2-2-2--2-2-2--|
d-2p0-----2--2-2-2--2-2-2--2-2-2--2-2-2--|
a-----2p0-0--0-0-0--0-0-0--0-0-0--0-0-0--|
e----------------------------------------|
            /p a l m   m u t e d.......\

  A
e-------------------------|
b-------------------------|
g-2-2-2--2-2-2------------|
d-2-2-2--2-2-2----------3-|
a-0-0-0--0-0-0-2p0------3-|
e-------------------2p0-1-|
 /palm  muted.\

  F
e------------------------------------------|
b------------------------------------------|
g------------------------------------------|
d-3-3-3--3-3-3--3-3-3--3-3-3--3-3-3--3-3-3-|
a-3-3-3--3-3-3--3-3-3--3-3-3--3-3-3--3-3-3-|
e-1-1-1--1-1-1--1-1-1--1-1-1--1-1-1--1-1-1-|
 / p a l m    m u t e d...................\    
[ Tab from: http://www.guitartabs.cc/tabs/t/the_living_end/save_the_day_tab_ver_2.html ]
  G    A
e---3------------------------------------------------|
b---0------------------------------------------------|
g---0--2-2-2--2-2-2--2-2-2--2-2-2--2-2-2--2---------2|
d---0--2-2-2--2-2-2--2-2-2--2-2-2--2-2-2--2-2p0-----2|
a---2--0-0-0--0-0-0--0-0-0--0-0-0--0-0-0--0-----2p0-0|
e-3-3------------------------------------------------|
      / p a l m    m u t e d............\
Repeat again


Chorus:

  C                F        G
e---------------------------3-3-3-3-|
b---------------------------3-3-3-3-|
g-5-5-5-5-5-5-5-5-----------0-0-0-0-|
d-5-5-5-5-5-5-5-5--3-3-3-3--0-0-0-0-|(x4)
a-3-3-3-3-3-3-3-3--3-3-3-3--2-2-2-2-|
e------------------1-1-1-1--3-3-3-3-|

Intro

Verse

Chorus

Pre Solo:

  C
e----------------------------|
b----------------------------|
g-5-5-5-5-5------------------|
d-5-5-5-5-5------------------|(x4)
a-3-3-3-3-3-3-3-3-3-3-3-3-3--|
e----------------------------|
           /palm  muted....\


Solo:

e-------------------------------------|
b-5---------------------------------5-|
g-5---------------------------------5-|
d-5--5h7-5-3-2-0---3p2-0------------5-|
a-3--------------3-------3---2-3-5--3-|
e--------------------------3----------|


e--3h5-3-1-0-----1p0-------------|
b------------3-1-----3-1---0-1-3-|
g------------------------0-------|
d--------------------------------|
a--------------------------------|
e--------------------------------|

  A             G  D           D# E  C
e---------------3----------------------|
b---------------3----------------------|
g-2-2-2--2-2-2--0--7-7-7--7-7-7-8-9--5-|
d-2-2-2--2-2-2--0--7-7-7--7-7-7-8-9--5-|(x2)
a-0-0-0--0-0-0--2--5-5-5--5-5-5-6-7--3-|
e---------------3----------------------|


e---------------------------------------------|
b---------------------------------------------|
g---------------------------------------------|
d---------------------------------------------|
a-(5-5)--(4-4)--(3-3)--(2-2)--(3-3)-(4-4)--(5)|
e---------------------------------------------|


e-----------|
b-----------|
g-----------|
d-----------|
a-----------|
E-pickslide-|


Chorus (repeat as needed)


Outro:
                         
                         Am
e-----3-1-0-------0------0-0-0--|
b---1-------0----0-------1-1-1--|
g-2-------------2--------2-2-2--|
d--------------2---------2-2-2--|
a------------------------0-0-0--|
e-------------------------------|
Comments