The Living End - Roll On Chords & Tabs

 

Roll On Chords & Tabs

The Living End Chords & Tabs

Version: 5 Type: Tab 0 ratings
1 star 2 stars 3 stars 4 stars 5 stars
comments

Roll On Tab

Roll On - The Living End
Tabbed by Jason Zarpellon

h=hammer on
p=pull of
^=bend
v=bend back down

Intro:

e----------------------------------------
b----------------------------------------
g-----------6-9----------6-9-------------  Repeat as needed
d--7-7-7-7--7-7--7-7-7-7-7-7-------------
a--0-0-0-0--0-0--0-0-0-0-0-0-------------
e----------------------------------------

Chorus:

e------------------------------------------3--3-3----------3--3---
b------------------------------------------0--0-0----------3--0---
g--5--5------------5--5------------5--5-5--0--0-0--2--2----4--0---
d--5--5----3--3-3--5--5----3--3-3--5--5-5--0--0-0--2--2----3--0--- x2
a--3--3----3--3-3--3--3----3--3-3--3--3-3--2--2-2--0--0----3--2---
e-------0--1--1-1-------0--1--1-1----------3--3-3-------0--1--3---

Intro

Verse: 

e---------------------------------------------------------------------
b---------------------------------------------------------------------
g----2-2-----2--2-2-2-2--------------5-5-5-5--7-7-7-7--2--4--2-2-4-2--
d----2-2-4-2-2--2-2-2-2-4-2-5-4-2-0--5-5-5-5--7-7-7-7--2--4--2-2-4-2-- x2
a-3--0-0-0-0-0--0-0-0-0-0-0-0-0-0-0--3-3-3-3--5-5-5-5--0--2--0-0-2-0--
e---------------------------------------------------------------------

Chorus

Intro

Verse

Solo:

e--7^---------------------------------------
b--8^-------------------------------------
g-----9-9-------7h9p7---7-----------------
d-----------7h9-------9---9-8-7s5---7-5b--
a---------------------------------7-------
e-----------------------------------------

e-------------------------------------------------------
b------------------------------------6--6-6-------------
g--------------------------5--5-5-5-------------5-7-7^--
d----------------7--7-7-7---------------------7----------
a------8--8-8-8-----------------------------------------
e--0----------------------------------------------------

This next bit is played really quick
[ Tab from: http://www.guitartabs.cc/tabs/t/the_living_end/roll_on_tab_ver_5.html ]
e--5----------------------------------
b----8p5---8p5-----5------------------
g--------7-----7p5---7p5---7p5--------
d------------------------7-----7p5h7--
a-------------------------------------
e-------------------------------------

e---8------8---8---8---8---8---8---8---8---8---8---8---8---8--
b---8h10--10---8--10---8--10--11---8--10--11---8--10--11---8--
g--10-----10--10--10--10--10--10--10--10--10--10--10--10--10--
d-------------------------------------------------------------
a-------------------------------------------------------------
e-------------------------------------------------------------

e-------15--12----------12--12--12--12--11--
b--15^---------15-12-15---------------------
g-------------------------------------------
d-------------------------------------------
a-------------------------------------------
e-------------------------------------------

Bridge: (Do you really care, why we're standing there)

e----------------------------------
b----------------------------------
g--2-----2------5-5-5-5-7-7-7-7-2--  x2
d--2-----2------5-5-5-5-7-7-7-7-2--
a--0-----0------3-3-3-3-5-5-5-5-0--
e----------------------------------

Next is just bass, guitar kicks in at
"We can see you're all expandable, when all is said and done"

e--------------------------------------
b--------------------------------------
g--------3-3-3-3-5-5-5-5------7--7-----
d--5-----3-3-3-3-5-5-5-5-5----7--7--5--
a--5-----1-1-1-1-3-3-3-3-5----5--5--5--
e--3---------------------3----------3--

Chorus

Intro

Outro: Guitar in backround

e--5---------5------
b-------------------
g------2---------2--
d-------------------
a-------------------
e-------------------

Main Guitar

e--------------------------------------------------------------------
b--------------------------------------------------------------------
g-----------------------------------------------------------3-----2--
d--7-7-7-7-5-5-5-5-4-4-4-4-3-3-3-3-7-7-7-7-5-5-5-5-4-4-4-4--3--2--2--
a--0-0-0-0-0-0-0-0-0-0-0-0-0-0-0-0-0-0-0-0-0-0-0-0-0-0-0-0--1--2--0--
e--------------------------------------------------------------0-----



How about that kids?
Jason Zarpellon,  jason_zarps@hotmail.com
Comments