The Living End - Roll On Chords & Tabs

 

Roll On Chords & Tabs

The Living End Chords & Tabs

Version: 4 Type: Tab 0 ratings
1 star 2 stars 3 stars 4 stars 5 stars
comments

Roll On Tab

   
The Living End
Roll On
Roll On 
Track 1

Hey I figured this out the other day well here it is may not be the way chris
plays it but it sounds right


Intro(Just Continu this fr a while note:  the strum paterrn maybe different)
     a
e----------------------------------
b-------2-5--------2-5-------------
g-2-2-2-2-2--2-2-2-2-2-------------
d-2-2-2-2-2--2-2-2-2-2-------------
a-0-0-0-0-0--0-0-0-0-0-------------
e----------------------------------
[ Tab from: http://www.guitartabs.cc/tabs/t/the_living_end/roll_on_tab_ver_4.html ]
(Chorus)
      c5      f5       c5       f5       c5     g      ami  f  g 
e---------------------------------------------3--3-3--5--5--1--3-----
b---------------------------------------------3--3-3--5--5--1--3-----
g--5--5-5-----------5--5-5-----------5--5-5---0--0-0--5--5--2--4-----
d--5--5-5---3--3-3--5--5-5---3--3-3--5--5-5---0--0-0--7--7--3--5-----
a--3--3-3---3--3-3--3--3-3---3--3-3--3--3-3---0--0-0--7--7--3--5-----
e-----------1--1-1-----------1--1-1-----------3--3-3--5--5--1--3-----


Verse
e---------------------------------------------------------
b---------------------------------------------------------
g----2-x-2---2-4-4-2---5-5--5--7-7--7--2--4--2-2--4-------
d----2-x-2---2-4-4-2---5-5--5--7-7--7--2--4--2-2--4-------
a-3--0-x-0-3-0-0-0-0---3-3--3--5-5--5--0--0--0-0--0-------
e---------------------------------------------------------
                      pm___ >pm____ >       

Well Thats it besides the solo section if you wanna solo i think the scale
is an a minor penitonic
Comments