The Living End - Riot On Broadway Chords & Tabs

 

Riot On Broadway Chords & Tabs

The Living End Chords & Tabs

Version: 1 Type: Tab 0 ratings
1 star 2 stars 3 stars 4 stars 5 stars
comments

Riot On Broadway Tab

   
                    -THE LIVING END-
                    Riot On Broadway

                  Tabbed by Mick Fryar
                  manumick20@yahoo.com

s=slide
x=dead note
^=full bend
(.5)=half bend
h=hammer on
p=pull off


Intro:
 
        G       D        A
e---------------------------|
b--5-5--3--5-5--3--5-5-3----|
g-------0-------2--------2--|
d-------0-------0--------2-(x2)
a------------------------0--|
e-------3-------------------| 


Verse:

  A
e----------------------------|
b----------------------------|
g-2-2-2-2-2-2-2-2------------|
d-2-2-2-2-2-2-2-2------------|  
a-0-0-0-0-0-0-0-0-------3-2--| 
e-----------------0-1-3------|
  / p a l m    m u t e d...\

repeat as many times as needed 
*at some stages play the A chord with no fill 
on the end. Listen to know what I mean.


                                              F   G
e-----2-------------0--------------2--------------3-|
b--------3-------------1--------------3-----------0-|
g-----------2-------------0--------------2--------0-|
d--------------------------------------------3-3--x-|
a--------------------------------------------3-3--2-|
e--2-------------1--------------2------------1-1--3-|
     "when the lights go out"



Chorus:


   D   A# G       D  A# G       D  D# G          
e------------3-------------3-------------3----|
b--------------3-------------3-------------3--|
g-7-7------------7-7-----------7-7------------|
d-7-7--8-5-5-----7-7-8-5-5-----7-7-8-5-5------|
a-5-5--8-5-5-----5-5-8-5-5-----5-5-8-5-5------|
e------6-3-3---------6-3-3---------6-3-3------|

   A
e------------------------1---------------1---------|
b-----------------------3---------------3----------|
g--2-2-2-2-2-2-2-2-----2---------------2-----------|
d--2-2-2-2-2-2-2-2--0------------3--0-----------3--|
a--0-0-0-0-0-0-0-0---------0--1------------0-1-----|
e--------------------------------------------------|

Verse

Chorus


Bridge#1:

e---------------------------------|
b----6------4------4------4-------|
g---------------------------------|
d--8---8--6---6--5---5--4---4-(x3)|
a---------------------------------|
e---------------------------------|


Solo:  

  D
e------5h6p5-------5h6p5-------5h6p5-------5h6p5------|
b------------5h6p5-------5h6p5-------5h6p5-------5h6p5|
g-7-7-------------------------------------------------|
d-7-7-------------------------------------------------|
a-5-5-------------------------------------------------|
e-----------------------------------------------------|
[ Tab from: http://www.guitartabs.cc/tabs/t/the_living_end/riot_on_broadway_tab.html ]
e-------------------|
b-------------------|
g-------------------|
D-p-i-c-k-s-l-i-D-e-|
A-p-i-c-k-s-l-i-D-e-|
e-p-i-c-k-s-l-i-D-e-|

e----------10-------------------------s-------1---|
b--13^-13^----13^---------------------s-------1---|
g------------------12^(.5)-10-12-10~--s--x--------|
d------------------------------------------0------|
a-------------------------------------------------|
e-------------------------------------------------|

e-------------------------------|
b-------------------------------|
g--7p5-7-5s------------5-7p5-7--|
d-----------5-3------7----------|
a---------------5---------------|
e-----------------s-------------|

e--13p10----10-------------------------------|
b--------13----13p10-13p10----10-------------|
g--------------------------12----12p10-12p10-|
d--------------------------------------------|
a--------------------------------------------|
e--------------------------------------------|

e--------------------------------|
b-------------10-13p10----10-13^-|
g-10-12p10-12----------12--------|
d--------------------------------|
a--------------------------------|
e--------------------------------|



Bridge#2:

     G     D#    G      D#     G    F    
e---------------------------------------|
b---------------------------------------|
g--------9-9-9--------9-9-9-------------|
d--5-5-5-9-9-9--5-5-5-9-9-9---5-5--3-3--|
a--5-5-5-6-6-6--5-5-5-6-6-6---5-5--3-3--|
e--3-3-3--------3-3-3---------3-3--1-1--|
                                                          

  D#                  A
e---------6-6-6-6--:------------|
b---------6-6-6-6--:------------|
g-8-8-8-8-8-8-8-8--:------------|
d-8-8-8-8-8-8-8-8--:--7-7---7-7-|
a-6-6-6-6-6-6-6-6--:--7-7---7-7-|
e------------------:--5-5-- 5-5-|
                      RIOT!


Last Chorus:

   e   c  A       e   c   A       e   c  A         
e--------------5-------------5--------------|
b---------------5--------------5------------|
g--9-9------------9-9------------9-9--------|
d--9-9-10-7-7-----9-9-10-7-7-----9-9-10-7-7-|
a--7-7-10-7-7-----7-7-10-7-7-----7-7-10-7-7-|
e------8--5-5---------8--5-5---------8--5-5-|

  B
e-----------------------------|
b-----------------------------|
g-----------------------------|
d-9-9-9-9-9-9-9-9-pause--(x2)-|
a-9-9-9-9-9-9-9-9-------------|
e-7-7-7-7-7-7-7-7------0------|


Outro:

e-7h9p7-------7h9p7-------7h9p7--------| 
b-------7h9p7-------7h9p7-------7h9p7--|
g--------------------------------------|
d--------------------------------------|
a--------------------------------------|
e--------------------------------------|

   e
e------|
b------|
g-9--9-|
d-9--9-|
a-7--7-|
e------|

Tabbed By Mick Fryar, manumick20@yahoo.com

Comments