The Living End - Ready Chords & Tabs

 

Ready Chords & Tabs

The Living End Chords & Tabs

Version: 1 Type: Tab 0 ratings
1 star 2 stars 3 stars 4 stars 5 stars
comments

Ready Tab

                   -THE LIVING END-
                       Ready
                 Tabbed By Mick Fryar
                 manumick20@yahoo.com


~=vibrado
h=hammer on
p=pull off
 From The Start. 
e-----------------------------------------------|
b-----------------------------------------------|
g-2~~-------------------------------------------|
d-2~~-------------------------------------------|
a-0~~--12-------------10-11-12-14---15p14p12----|
e----------13-12-13--------------------------12-|

or you can play it like this too but you can't get
the pull offs as easily.

e-------------------------------------|
b-------------------------------------|
g----------------------4h5p-----------|
d--7------------5-6-7----------7------|
a--7---8-7-8---------------------7----|
e--5----------------------------------|

In this next bit there is is lead (more towards
the end of this next section)in the back 
ground but it`s too hard to work out so here
are the chords he plays over.
[ Tab from: http://www.guitartabs.cc/tabs/t/the_living_end/ready_tab.html ]
e------------------------------------------------|
b------------------------------------------------|
g------------------------------------------------|
d-7-7-7-7-7-7-7-7-6-6-6-6-2-2-2-2--2-2-3-3-4-4-6-|
a-7-7-7-7-7-7-7-7-6-6-6-6-2-2-2-2--2-2-3-3-4-4-5-|
e-5-5-5-5-5-5-5-5-4-4-4-4-0-0-0-0--0-0-1-1-2-2-3-|
 / p a l m     m u t e d........................\

e--------------------------------|
b--------------------------------|
g-9-9-9-9------------------------|
d-9-9-9-9------7-----7-----7-----|
a-7-7-7-7------7-----7-----7-----|
e--------------5-----5-----5-----|
             Ready  Ready  Ready!

Then finish with this


Play bits of the start of the song which are shown 
abouve and finish off on this:

e----------------------------------------------------|
b----------------------------------------------------|
g--14p13p12----------------------12------------2~~-2-|
d---------------14-14-12-13-14-------14p12h14--2~~-2-|
a----------------------------------------------0~~-0-|
e----------------------------------------------------|
Comments