The Living End - Prisoner Of Society Chords & Tabs

 

Prisoner Of Society Chords & Tabs

The Living End Chords & Tabs

Version: 3 Type: Tab 0 ratings
1 star 2 stars 3 stars 4 stars 5 stars
comments

Prisoner Of Society Tab

   
intro
e--------------------------------
B--------------------------------
G--------------------------------
D--------------------------------
A--------------------------------
E-0-0-0-3-0-0-5-0-0-7-0-0-5-0-5-0

the chorus uses the chords

   A  C  D  F  G
e--0------------
B--2------------
G--2------------
D--2--5--7--3--9
A--0--5--7--3--9
E-----3--5--1--7

and the verse goes
[ Tab from: http://www.guitartabs.cc/tabs/t/the_living_end/prisoner_of_society_tab_ver_3.html ]
e--------------------
B--------------------
G-------------------2
D-------------------2
A-0-0-0-0-0-0-0-0-0-0
E--------------------

FOR THE 0'S ITs fast palm muteing

then

e--------------------
B--------------------
G-------------------5
D-------------------5
A-3-3-3-3-3-3-3-3-3-3
E--------------------

THE 3'S ARE THE same as the 0's

then 

e--------------------
B--------------------
G-------------------7
D-------------------7
A-5-5-5-5-5-5-5-5-5-5
E--------------------

then theres a bridge and a solo but i can't find the paper i wrote it out on 
sorry

MATT KNELLER
Comments