The Living End - Pictures In The Mirror Chords & Tabs

 

Pictures In The Mirror Chords & Tabs

The Living End Chords & Tabs

Version: 2 Type: Tab 0 ratings
1 star 2 stars 3 stars 4 stars 5 stars
comments

Pictures In The Mirror Tab

   
song - pictures in the mirror 
artist - the living end 
album - roll on 
tabbed by tom kelly 
  
standard tuning 
intro: G - C | G - C | G - C | Bb - F - D# - C| 
                           \__________________/ 
                                    /\ 
                              played quickly 
verse: C (strum really quickly with a palm mute) then a quick strum of G 
pre chorus 

    C           D            F 
e|---------------------------------------------------------------------- 
B|---------------------------------------------------------------------- 
G|--5-5-5~-----7-7-7~-------10-10-10~-------7b-5-7b-5-7b-5-7b-5-7b-7b--- 
D|--5-5----x3--7-7-----x3---10-10------x3---7b-5-7b-5-7b-5-7b-5-7b-7b--- 
A|--3-3--------5-5-----------8--8--------------------------------------- 
E|----------------------------------------------------------------------
(~ means just wobble the string to get the right sound) 

e|--------------------------------------- 
B|--------------------------------------- 
G|---7b-5-7b-5-7b-5-7b-5-7b-7b----------- 
D|---7b-5-7b-5-7b-5-7b-5-7b-7b-----------
A|---------------------------------------
E|--------------------------------------- 

chorus: D | G | D | A | D - G | C | 
[ Tab from: http://www.guitartabs.cc/tabs/t/the_living_end/pictures_in_the_mirror_tab_ver_2.html ]
little lick in the second verse 
e|---------------------------------------- 
B|---------------------------------------- 
G|---------------------------------------- 
D|---------------------------------------- 
A|--------3-3---3------------------------- 
E|--3-3-5-----5--------------------------- 

end of second chorus: C | D# - F | Bb - C| x2 

then the solo: 
e|----------------------------------------------
B|-------4----------4------------4---------4-6b- 
G|---5-5---5--5-5-5---5-3-5--5-5---5-5-5-5------
D|----------------------------------------------
A|----------------------------------------------
E|---------------------------------------------- 
  

e|---------------------------------------- 
B|---------------------------------------- 
G|-----------------10--5------------------
D|-----------------10--5------------------
A|--1-0-------------8--3------------------
E|------3-1-0-1-3-------------------------
  

e|-------------------14b-14-12-14b-12------17b-17-15-14-14-15-17-------- 
B|--13-12-10-12-----------------------13-------------------------15-13-- 
G|--------------9------------------------------------------------------- 
D|---------------------------------------------------------------------- 
A|---------------------------------------------------------------------- 
E|----------------------------------------------------------------------

e|------------------------7------------------ 
B|------------------------------------------- 
G|--5-3--10-9--9-8----9-----9---9----9-9-9-9- 
D|--5-3--10-9--9-8------9-----9------9-9-9-9-
A|--3-1---8-7--7-6--7----------------7-7-7-7-
E|------------------\_____x3_____/-----------
  

finish with another pre chorus and chorus
Comments