The Living End - Jimmy Chords & Tabs

 

Jimmy Chords & Tabs

The Living End Chords & Tabs

Version: 1 Type: Tab 0 ratings
1 star 2 stars 3 stars 4 stars 5 stars
comments

Jimmy Tab

   
Jimmy  tabbed by: Brock Anderson  (hey Blake)

/= slide up
\= slide down
p= pull off
h= hammer on
b= half bend
^= full bend
^= bend 2 frets
v= bring bend down
pm= palm mute
~= vibrado


Intro:


e--0----4--2p0-----------------4-4--4-4----|
b--2----5------2---------------5-4--5-4----|
g--1-------------1-----4----6--6-4--6-4----|
d--2----------------6----6--6--6-4--6-4----|
a--0----------------6-------4--------------|
e-------------------4----------------------|
"Jimmy, what's your vote?"

e------------------------------|
b------2------------------2----|
g--------1-----4--------2------|
d----2-----------6-------------|
a--0---------6--------4--------|
e----------4--------2----------|
"You don't have to repay them,
after all."


Verse 1:

e--4--4--4--4--4--4--4----------|
b--5--5--5--5--5--5--5----------|
g--6--6--6--6--6--6--6----------|
d--6--6--6--6--6--6--6----------|
a--4--4--4--4--4--4--4----------|
e----------------------4/5\4----|

e--4--4--4--4--4--4--4--4--4--4--4--4--4--4--4--4--|
b--5--5--4--4--5--5--4--4--5--5--4--4--4--4--4--4--|
g--6--6--4--4--6--6--4--4--6--6--4--4--4--4--4--4--|
d--6--6--4--4--6--6--4--4--6--6--4--4--6--6--6--6--|
a--4--4--4--4--4--4--4--4--4--4--4--4--6--6--6--6--|
e--------------------------------------4--4--4--4--|
"Jimmy told of those who'd been cheated,
but never defeated, just morally wrong."

e--4--4--4--4--4--4--4--4--4--4--4--4--4--4--4--4--|
b--5--5--4--4--5--5--4--4--5--5--4--4--4--4--4--4--|
g--6--6--4--4--6--6--4--4--6--6--4--4--4--4--4--4--|
d--6--6--4--4--6--6--4--4--6--6--4--4--6--6--6--6--|
a--4--4--4--4--4--4--4--4--4--4--4--4--6--6--6--6--|
e--------------------------------------4--4--4--4--|
"Jimmy told of those who were jaded,
their colours had faded, like they didn't belong."


Pre Chorus:

e-----------------------------------|
b----2-------4---------5-5-5-5-5----|
g------2-------4----6--6-6-6-6-6----|
d--------4-------6--6--6-6-6-6-6----|
a-------------------4---------------|
e--2-------4------------------------|
"And they lied, 
a new life they were seeking 

e---------------------------4-4-4---|
b----2-------4--------------5-5-5---|
g------2-------4----6-6-6-6-6-6-6---|
d--------4-------6--6-6-6-6-6-6-6---|
a-------------------4-4-4-4-4-4-4---|
e--2-------4------------------------|
                    pm......
"Yes they lied,
now thier plans are leaking."


Chorus 1: 

e-------------------4--2p0-------------------4-4--4-4----|
b--2-2-2-2-2-2-2-2--5------2-----------------5-4--5-4----|
g--1-1-1-1-1-1-1-1-----------1-------4----6--6-4--6-4----|
d--2-2-2-2-2-2-2-2--------------6--6---6--6--6-4--6-4----|
a--0-0-0-0-0-0-0-0--------------6--6------4--------------|
e-------------------------------4--4---------------------|
"Jimmy, what's your vote?"

e------------------------------|
b------2------------------2----|
g--------1-----4--------2------|
d----2-----------6-------------|
a--0---------6--------4--------|
e----------4--------2----------|
"You don't have to repay them,
after all."


Verse 2: Same as Verse 1, but with
         a second guitar in the backround


e--------------------------------------------------------------|
b--5-5-5-5-4-4-4-4-2-2-2-2-0-0-0-0------------------------2-4--|
g----------------------------------1-1-1-1-1------------1------|
d--------------------------------------------4-2-1-------------|
a--------------------------------------------------------------|
e--------------------------------------------------------------|
   pm.........................................................
Jimmy told of those who had made it,
and those who had paid it, but the price was wrong."

e-----------------------------------------------------|
b--5-5-5-5-4-4-4-4-2-2-2-2-0-0-0-0--------------------|
g----------------------------------1-1-1-1-1----------|
d--------------------------------------------4-2------|
a-----------------------------------------------------|
e-----------------------------------------------------|
   pm.............................................
"But everybody's to busy fighting,
to bother deciding, what has to be done."


Chorus 2:

e-------------------4--2p0-------------------4-4--4-4----|
b--2-2-2-2-2-2-2-2--5------2-----------------5-4--5-4----|
g--1-1-1-1-1-1-1-1-----------1-------4----6--6-4--6-4----|
d--2-2-2-2-2-2-2-2--------------6--6---6--6--6-4--6-4----|
a--0-0-0-0-0-0-0-0--------------6--6------4--------------|
e-------------------------------4--4---------------------|
"Jimmy, what's your vote?"

e------------------------------4-4-4-4-4-4-4-4-4-0-0-0------------|
b------2------------------2----5-5-5-4-4-4-5-5-5-0-0-0------------|
g--------1------4-------2------6-6-6-6-6-6-6-6-6-4-4-4-4h6p4------|
d----2------------6------------6-6-6-6-6-6-6-6-6-------------6----|
a--0---------6--------4----------------------------------------7--|
e----------4--------2---------------------------------------------|
"You don't have to repay them,
after all."
e--------------------------------------|
b------2------------------2------------|
g--------1-----4--------2--------------|
d----2-----------6---------------------|
a--0---------6--------4--------~~~~~~--|
e----------4--------2----------~~~~~~--|
                             (pickslide)
"No you don't have to repay them,
after all."


Solo:
[ Tab from: http://www.guitartabs.cc/tabs/t/the_living_end/jimmy_tab.html ]
e---------------------------------------------------------------------------|
b---------------------------------------------------------------------------|
g---------------------------------------------------------------------------|
d-------------------4----------------------------------------------9--8--7--|
a-4~--7-4-----2-3-4---7-4-----2-3-4~--7-4-----2-3---2h4p2---2h4-4/-6--5--4--|
e---------4-4-------------4-4-------------4-4-----4-------4-----------------|

e---------------------------------------------------------------------------|
b---------------------------------------------------------------------------|
g-----------------------------------------------------------------------5b--|
d-------------------4-----------------------------------------------4-6-----|
a-4~--7-4-----2-3-4---7-4-----2-3-4~--7-4-----2-3---2h4p2---2h4-4/7---------|
e---------4-4-------------4-4-------------4-4-----4-------4-----------------|

e-------------------------------------------------4------------------|
b-----5-------------7-5---------------5---------4---7^^~--7^^~--7^^--|
g-6~----6-----4-5-6-----6-----4-5-6~----6-----5-5--------------------|
d---------6-6-------------6-6-------------6-6------------------------|
a--------------------------------------------------------------------|
e--------------------------------------------------------------------|

e-------9bv--9----9b--/11-11bv--14^^--14-------------9-7----0-------------|
b--9h12--------12---------------14^^-----17p14--/9-9-9---9-12p9h12p9h12---|
g-------------------------------------------------------------------------|
d-------------------------------------------------------------------------|
a-------------------------------------------------------------------------|
e-------------------------------------------------------------------------|

e-----------------------------------------|
b-----------------------------------------|
g--6---4~---------------------------------|
d-----------4h6----------------4--6-6~----|
a---------------7-4-------4-6-------------|
e-------------------4--7------------------|


Bridge:

e--4--2p0------4----4---------0----|
b--5------2----4----5---------2----|
g-----------1--4----6---------1----|
d--------------6----6-------2-2----|
a--------------6----4----0--0-0----|
e--------------4-------------------|
"Jimmy, it seems as though it can't be sold
as easy as a story, can be told."

e--4--2p0------4----4----------------|
b--5------2----4----5------5--4h5----|
g-----------1--4----6----6--------6--|
d--------------6----6--6-------------|
a--------------6----4----------------|
e--------------4---------------------|
"Jimmy"

e-------------------------------------|
b-------------------------------------|
g--1-1-1-1----------------------------|
d--2-2-2-2-6-6-6-6-4-4-4-4-4-4-4-4----| x3
a--0-0-0-0-x-x-x-x-4-4-4-4-4-4-4-4----|
e----------4-4-4-4-2-2-2-2-2-2-2-2----|
   pm.............................
"You don't have to re-pay them,
no you don't have to re-pay them,
no you don't have to re-pay them after all."


Verse 3:

e--4--4--4--4--4--4--4----------|
b--5--5--5--5--5--5--5----------|
g--6--6--6--6--6--6--6----------|
d--6--6--6--6--6--6--6----------|
a--4--4--4--4--4--4--4----------|
e----------------------4/5\4----|

e--4--4--4--4--4--4--4--4--4--4--4--4--4--4--4--4--|
b--5--5--4--4--5--5--4--4--5--5--4--4--4--4--4--4--|
g--6--6--4--4--6--6--4--4--6--6--4--4--4--4--4--4--|
d--6--6--4--4--6--6--4--4--6--6--4--4--6--6--6--6--|
a--4--4--4--4--4--4--4--4--4--4--4--4--6--6--6--6--|
e--------------------------------------4--4--4--4--|
"Jimmy told of those who'd been cheated,
but never defeated, just morally wrong."

e--4--4--4--4--4--4--4--4--4--4--4--4--4--4--4--4--|
b--5--5--4--4--5--5--4--4--5--5--4--4--4--4--4--4--|
g--6--6--4--4--6--6--4--4--6--6--4--4--4--4--4--4--|
d--6--6--4--4--6--6--4--4--6--6--4--4--6--6--6--6--|
a--4--4--4--4--4--4--4--4--4--4--4--4--6--6--6--6--|
e--------------------------------------4--4--4--4--|
"But he believed in those who were jaded,
their colours had faded, like they didn't belong." 


Last Chorus:

e-------------------4--2p0----------------------------|
b--2-2-2-2-2-2-2-2--5------2--------------------------|
g--1-1-1-1-1-1-1-1-----------1-------4----6-6-6-6--4--|
d--2-2-2-2-2-2-2-2--------------6--6---6--6-6-6-6--4--|
a--0-0-0-0-0-0-0-0--------------6--6------4-4-4-4--2--|
e-------------------------------4--4------------------|
"Jimmy, what's your vote?"

e-------------------4--2p0-------------------4-4--4-4----|
b--2-2-2-2-2-2-2-2--5------2-----------------5-4--5-4----|
g--1-1-1-1-1-1-1-1-----------1-------4----6--6-4--6-4----|
d--2-2-2-2-2-2-2-2--------------6--6---6--6--6-4--6-4----|
a--0-0-0-0-0-0-0-0--------------6--6------4--------------|
e-------------------------------4--4---------------------|
"Jimmy, what's your vote?"

e----------------------------------------------------------|
b------2------------------2----5-5--5-5--5--5-5--5-5--5----|
g--------1-----4--------2------6-6--6-6--6--6-6--6-6--6----|
d----2-----------6-------------6-6--6-6--6--6-6--6-6--6----|
a--0---------6--------4------------------------------------|
e----------4--------2--------------------------------------|
"You don't have to repay them,
after all."


Outro: Mostly 2 guitars

Rythem
A, G#m, F#m  x8

Lead
e---------------------------------|---------|
b--5-5--5-5--5--5-5--5-5--5-------|--7-5-7--|
g--6-6--6-6--6--6-6--6-6--6-------|--6-6-6--|
d--6-6--6-6--6--6-6--6-6--6--(x8)-|--6-6-6--|
a---------------------------------|---------|
e---------------------------------|---------|
"Now we're all faded (x4)
Well Jimmy told of those who'd been cheated,
never defeated, just morally wrong
Yeah Jimmy told of those who were jaded,
their colours had faded like they didn't belong."


Outro:

e--4--4--4--4--4--4--12--|
b--5--5--4--4--4--4--14--|
g--6--6--4--4--4--4--13--|
d--6--6--4--4--6--6--14--|
a--4--4--4--4--4--4------|
e------------------------|

tabbed by: Brock Anderson  (hey blake)
Comments