The Living End - Ive Just Seen A Face Chords & Tabs

 

Ive Just Seen A Face Chords & Tabs

The Living End Chords & Tabs

Version: 1 Type: Bass Tab 0 ratings
1 star 2 stars 3 stars 4 stars 5 stars
comments

Ive Just Seen A Face Bass Tab

   
oi pube


Ive just seen a face by The Living End (Beatles Cover)

Verse and solo

      intro        G
---------------|------------------------------|
---------------|------------------------------|
---5----7----9-|--10-----10------10------10--9|
---------------|-----10------10------10-------|

[ Tab from: http://www.guitartabs.cc/tabs/t/the_living_end/ive_just_seen_a_face_btab.html ]
Em                             C
----------------------------|---------------|
----------------------------|---------------|
--7-----7------7------7---5-|---3--3--3--3--|
-----7------7-----7---------|---------------|

D
--------|
--------|
---5--5-|  back to G riff
--------|



Chorus

   D           C           G     C      G

-------------------------------------------------|
-------------------------------------------------|
---5--5--5--5---3--3--3--3--------3--3-----------|
----------------------------3--3--------3--3--3--|

you can use the intro part to break into the chorus

submitted by jim

Comments