The Living End - I Cant Give You What I Havent Got Chords & Tabs

 

I Cant Give You What I Havent Got Chords & Tabs

The Living End Chords & Tabs

Version: 1 Type: Tab 0 ratings
1 star 2 stars 3 stars 4 stars 5 stars
comments

I Cant Give You What I Havent Got Tab

Omg i cannot believe that no wun has tabbed this awesome song yet. Definantly one their 
songs eva.

if ne changes or comments plz e-mail me at parallels@hotmail.com

Artist:The living end
Song:I cant give you what i havn't got
Album:From here on in (the singles)
Tuning:standered

intro/verse (listen to strumming)

|---x-x-x-x-x-------------------------------------------------------------|
|---x-x-x-x-x-------------------------------------------------------------|
|---x-x-x-x-x---9------7------5------4------------------------------------|
|---x-x-x-x-x---x------x------x------x------------------------------------|
|---x-x-x-x-x---7------5------3------2------------------------------------|
|---x-x-x-x-x-------------------------------------------------------------|

|-------------------------------------------------------------------------|
|-------------------------------------------------------------------------|
|-------------------------------------------------------------------------|
|-------------------------------------------------------------------------|
|---3-3-3-3-3-3-3-3----7---3---5---2---7----------------------------------|
|---1-1-1-1-1-1-1-1----5---1---3---0---5----------------------------------|
[ Tab from: http://www.guitartabs.cc/tabs/t/the_living_end/i_cant_give_you_what_i_havent_got_tab.html ]
|-------------------------------------------------------------------------|
|-------------------------------------------------------------------------|
|--------9----7----5----4-------------------------------------------------|
|--------x----x----x----x-------------------------------------------------|
|--------7----5----3----2-------------------------------------------------|
|-------------------------------------------------------------------------|

|-------------------------------------------------------------------------|
|-------------------------------------------------------------------------|
|-------------------------------------------------------9-9-9-9-9-9-------|
|-------------------------------------------------------------------------|
|---3-3-3-3-3-3-3-3---7---3---5---2---7-7-7-7-7-7-7-7---------------------|
|---1-1-1-1-1-1-1-1---5---1---3---0---5-5-5-5-5-5-5-5---------------------|

|--------------------------------------0-0-0-0-0-0-0-0--------------------|
|-----6-6-6-6-----3-3-3-3----6-6-6-6---0-0-0-0-0-0-0-0--------------------|
|-----7-7-7-7-----4-4-4-4----7-7-7-7---1-1-1-1-1-1-1-1--------------------|
|-----7-7-7-7-----5-5-5-5----7-7-7-7---2-2-2-2-2-2-2-2--------------------|
|-----5-5-5-5-----5-5-5-5----5-5-5-5---2-2-2-2-2-2-2-2--------------------|
|--------------------------------------0-0-0-0-0-0-0-0--------------------|

thats basically it cept theres one bit when it goes (towards the end)
|---------------------------------------------------------------------------|
|---------------------------------------------------------------------------|
|---------------------------------------------------------------------------|
|---------------------------------------------------------------------------|
|---------------------------------------------------------------------------|
|---5-4-3-2-1-0-------------------------------------------------------------|

The solo is pretty easy no need to tab it just play it around the 5th, 7th and
9th fret on the G, D and A string you can improvise if u want pretty fun ey.
Comments