The Living End - From Here On In Chords & Tabs

 

From Here On In Chords & Tabs

The Living End Chords & Tabs

Version: 1 Type: Tab 0 ratings
1 star 2 stars 3 stars 4 stars 5 stars
comments

From Here On In Tab

   
From Here On In


/= slide up 
\= slide down
h= hammer on
p= pull off
^= full bend
v= bring bend down
pm= palm mute


Intro: Lead
     
e--0-0-0-0-0-0---------|  
b-/5-3-1-0-1-0---------|  
g-------------------2--|  
d-------------------2--|  
a---------------3^--0--|  
e----------------------|

Rythem:

e---------------|
b---------------|
g--5------------|
d--5---5--5--5--|
a--3---5--5--5--|
e------3--3--3--| 

Verse:
   A      F      C      G
e---------------------------------------|
b---------------------------------------|
g--2-2-----------5-5--------------------|
d--2-2----3-3----5-5----5-5-5--5-5-5-5--| x2
a--0-0----3-3----3-3----5-5-5--5-5-5-5--|
e---------1-1-----------3-3-5--3-3-3-3--|
"Oh I can't, explain it
no I guess it's just the way it goes and,
For I know, no reason,
For I know, where I'm going"

Pre-Chorus:

e-----------------------------------------------------------0--------0--|
b-----------------------------------------------------------0--------0--|
g--------------------------------------2--2-4-5-2--2-4-5----1--------1--|
d-2--2-4-5-2--2--4-5-2--2-4-5-2--2-4-5-2--2-4-5-2--2-4-5--2-2--2-2-2-2--|
a-2--2-4-5-2--2--4-5-2--2-4-5-2--2-4-5-0--0-2-3-0--0-2-3--2-2--2-2-2-2--|
e-0--0-2-3-0--0--2-3-0--0-2-3-0--0-2-3--------------------0-0--0-0-0-0--|
"Don't come around here no more,
You're not welcome here anymore"


Chorus:

e------------1--1------------3-3-3-------------------------------------------|
b------------1--1------------3-3-3-------------------------------------------|
g--2-2--2----2--2--5-5--5----4-4-4-------7---------------------10-10-10-9-9--|
d--2-2--2--3-3--3--5-5--5--5-5-5-5--(2x)-7---------------------10-10-10-9-9--|
a--0-0--0--3-3--3--3-3--3--5-5-5-5-------5-5-5-5-5-5-5-5-5-5-5--8--8--8-7-7--|
e----------1-1--1----------3-3-3-3-------------------------------------------|
                                           pm.................
"From here on in, you're on your own
So carry on, just like before
And don't you think I won't"


Pre verse: Chords A, F, C, G in backround

e--0--0---0--0-0---0-0---0-0-0--0--0---0--0-0---0-0---0-0-0------|
b--3--3/5-3--1-1---1-1/3-1-0-1--3--3/5-3--1-1---1-1/3-1-0-1------|
g----------------------------------------------------------------|
d----------------------------------------------------------------|
a------------------------------------------------------------3^--|
e----------------------------------------------------------------|

Verse

Pre Chorus

Chorus

Solo: Chorus chords in backround
[ Tab from: http://www.guitartabs.cc/tabs/t/the_living_end/from_here_on_in_tab.html ]
e--0--0---0--0-0---0-0---0-0-0-0------------------------------0---|
b--3--3/5-3--1-1---1-1/3-1-0-1-3---------------------------0--1---|
g------------------------------------------------------0h2--------|
d----------------------------------------0h2p0---0h2h3------------|
a----------------------------------0h2h3-------3------------------|
e-----------------------------------------------------------------|



e--3p2p0--------------------------------|
b--------3p2p0--------------------------|
g--------------3p2p0--3^v-2p0-----------|
d-----------------------------2p0-------|
a---------------------------------2p0---|
e---------------------------------------|



Bridge:

e-------------------------------------------|
b--2-2-2-2-6-6-6-6-7------7------7------7---|
g--2-2-2-2-6-6-6-6-7------7------7------7---|
d--2-2-2-2-6-6-6-6-7------7------7------7---| x3
a--0-0-0-0-4-4-4-4-5--5-5-5--5-5-5--5-5-5---|
e-------------------------------------------|
                      pm.    ...    ...

e--1-1--1-1-1--1--0-0--0-0-0------|
b--1-1--1-1-1--1--2-2--2-2-2------|
g--2-2--2-2-2--2--2-2--2-2-2------|
d--3-3--3-3-3--3--2-2--2-2-2------|
a--3-3--3-3-3--3--0-0--0-0-0------|
e--1-1--1-1-1--1--------------0---|

                                                                          
e--1-1-1-1--1-1-1-1--0-0-0-0--0-0-0-0--| 
b--1-1-1-1--1-1-1-1--2-2-2-2--0-0-0-0--|  
g--2-2-2-2--2-2-2-2--2-2-2-2--1-1-1-1--|  
d--3-3-3-3--3-3-3-3--2-2-2-2--2-2-2-2--|  
a--3-3-3-3--3-3-3-3--0-0-0-0--2-2-2-2--|  
e--1-1-1-1--1-1-1-1-----------0-0-0-0--|  

Chords in backround one again, are A, F, C, G
In between each chord, play this:
                                      
e-0-------0-------0------0------|  
b-0h1p0---0h1p0---0h1p0--0h1p0--|  
g-------------------------------|  
d-------------------------------|
a-------------------------------|  
e-------------------------------|  
                                        
Verse

Pre Chorus

Chorus: At the end of the chorus, play

e--------------------------------------|
b--------------------------------------|
g-7---------------------10-10--10-9-9--|
d-7---------------------10-10--10-9-9--| x 3
a-5-5-5-5-5-5-5-5-5-5-5--8--8---8-7-7--|
e--------------------------------------|
  pm...................


Outro:

e--0--0---0--0-0---0-0---0-0-0--0--0---0--0-0---0-0---0-0-0----------|
b--3--3/5-3--1-1---1-1/3-1-0-1--3--3/5-3--1-1---1-1/3-1-0-1----------|
g---------------------------------------------------------------2-2--|
d---------------------------------------------------------------2-2--|
a------------------------------------------------------------3^-0-0--|
e--------------------------------------------------------------------|

Great older song.
Tabbed By: Brock Anderson
Comments