The Living End - End Of The World Chords & Tabs

 

End Of The World Chords & Tabs

The Living End Chords & Tabs

Version: 1 Type: Bass Tab 0 ratings
1 star 2 stars 3 stars 4 stars 5 stars
comments

End Of The World Bass Tab

Song: End OF The World
Artist: The Living End
Albulm: Modern Artillery

Tabbed by: Graham Spearritt (grazzle_dazzle@hotmail.com)
Thanks to David Locke for tabbing guitar part, nice to be able to check a couple of things

INTRO

G------------------------|
D------------------------|
A------------------------| X 4
E---7--7--7-6--6---------|

VERSE

G--------       --------------------|
D--------       --------------------|
A-2---1--  X14  -2-0----------------|
E----2---       -----2-0------------|

PRECHORUS

G----------------------------------|
D----------------------------------|
A----------------------------------|
E-0-0-0-0-7-7-7-7-2-2-2-2-7-7-7-7--|


VERSE


PRECHORUS


CHORUS
[ Tab from: http://www.guitartabs.cc/tabs/t/the_living_end/end_of_the_world_btab.html ]
    I can  al- most
G--------------------------------------------------------------------------|
D--------------------------------------------------------------------------|
A------5---9---7-5-----5---9---7-5------4---7---5-4-----4---7---5-4--- X 2-|
E---7--------------7----------------5----------------5---------------------|

So give me a minute... (Same as prechorus- just add some fills)

G-------------------------------------|
D-------------------------------------|
A-------------------------------------|
E-0-------7---------2-----------7-----|

INTRO


VERSE


PRECHORUS


CHORUS


INTERLUDE (Just with bar's bass note- play each a lot)
Can't guarantee correctness but it sounds cool

G------------------------------|
D------------------------------|
A----5--4--2--7--6--5--4--2----|
E-7----------------------------|

SOLO

Go crazy with B (E-7-),then back to

PRECHORUS

POST SOLO

G-------       -----------|
D-------       -----------|
A---1-2- X 14  -2-0-------|
E-2-----       -----3-2---|

PRE CHORUS

CHORUS (X2)

INTRO

And for those who want to know, guitar at end is

G-4-3-2---------------------|
D-------4-3-2---------------|
A-------------4-0-2---------|
E---------------------------|

End on B
Comments