The Living End - Dont Shut The Gate Chords & Tabs

 

Dont Shut The Gate Chords & Tabs

The Living End Chords & Tabs

Version: 1 Type: Bass Tab 0 ratings
1 star 2 stars 3 stars 4 stars 5 stars
comments

Dont Shut The Gate Bass Tab

   
Artist: The Living End
Song: Don't Shut The Gate
Album: Roll On
Transcriber: tbmasa@mbf.sphere.ne.jp

g-----------------*--------  g-------------------------
d-----------------*--------  d-------------------------
a-----------------*--------  a-------------------------(x3)
e-0-5-0-5-0-5-0-5-*-5-0-3~-  e-0-3-6-5-3-5-6-5-3-5-0-3-

g-------------  g-----      g-------
d-------------  d-----      d-------
a-------------  a-----(x2)  a-------(x8)
e-0-3-6-5-3-5-  e-6-5-      e-6-5-3-

g-4-4-4-4-4-4-4-4-4-4-4-4-4---------------------------
d---------------------------5-------------------------
a-----------------------------------------------------(x2)
e-----------------------------0-3-6-5-3-5-0-3-6-5-3-5-

g-4-4-4-4-4-4-4-4-4-4-4-4-4-4-5-*---------------------------
d-------------------------------*---------------------------
a-------------------------------*-3-3-3-3-------------------
e-------------------------------*---------3-3-3-3-2-2-2-2-1-

g---------------------------------------------------  g-----------------
d---------------------------------------------------  d-----------------
a-------------------------3-3-3-3-------------------  a-----------------(x3)
e-0-3-6-5-3-5-6-5-3-5-0-3---------3-3-3-3-2-2-2-2-1-  e-0-0-3-0-5-5-3-5-
[ Tab from: http://www.guitartabs.cc/tabs/t/the_living_end/dont_shut_the_gate_btab.html ]
g-----  g-4-4-4-4-4-4-4-4-4-4-4-4-4-----------------------------------
d-----  d---------------------------5---------------------------------
a-----  a-------------------------------------------------------------(x2)
e-0-3-  e-----------------------------0-0-3-0-5-5-3-5-0-0-3-0-5-5-3-5-

g-4-4-4-4-4-4-4-4-4-4-4-4-4-4-5-*---------------------------
d-------------------------------*---------------------------
a-------------------------------*-3-3-3-3-------------------
e-------------------------------*---------3-3-3-3-2-2-2-2-1-

g-------------------------------------------------------------------------
d-------------------------------------------------------------------------
a-------------------------3-3-3-3---------------------7-5-----------------
e-0-3-6-5-3-5-6-5-3-5-0-3---------3-3-3-3-2-2-2-2-1-0-----3-5-0-3-0-1-2-3-

g-------------------------------      g---------  g-------------
d-------------------------------      d---------  d-------------
a-------------------------------(x4)  a---------  a-------------(x4)
e-0-0-3-0-5-5-3-5-6-6-5-3-5-0-3-      e-0-5-0-5-  e-0-3-6-5-3-5-

g---------------------------
d---------------------------
a-3-3-3-3-------------------(x3)
e---------3-3-3-3-2-2-2-2-1-

g-------------------------      g-------------  g-----      g-------      g-----
d-------------------------      d-------------  d-----      d-------      d-----
a-------------------------(x6)  a-------------  a-----(x3)  a-------(x8)  a-----
e-0-3-6-5-3-5-6-5-3-5-0-3-      e-0-3-6-5-3-5-  e-6-5-      e-6-5-3-      e-0-0-
Comments