The Living End - Closing In Chords & Tabs

 

Closing In Chords & Tabs

The Living End Chords & Tabs

Version: 3 Type: Tab 0 ratings
1 star 2 stars 3 stars 4 stars 5 stars
comments

Closing In Tab

The Living End - Closing In
Album - Roll On
Tabbed by Stogey 
Sicktonesforever@hotmail.com


E---------------------------------------------------------|
B----3p2---------6p5---------9p8-----------11p10----------|
G--------2-----------5-----------8---------------10-------|
D----------4-----------7-----------10---------------12----|
A--2---------2s5---------5s8----------8s10----------------|
E---------------------------------------------------------|


E----0--1-----2---|
B-5--------3--3---|
G-----------------|
D-----------------|
A-3--3--1--1--0---|
E-----------------|


E------------------------5-8-7-7-|-----------------------5-8-7----|
B--------------5-4s3-5h6-------9-|-------------5-4s3-5s6----------|
G--------5-4-7-------------------|-------5-4-7-------4s5----------|
D--0-3-7-------------------------|-0-3-7--------------------------|
A--------------------------------|--------------------------------|
E--------------------------------|--------------------------------|


E--------------------------------------12-14-15-17---|
B-----------------------------10-12-14---------------|
G---------------------8-10-12------------------------|
D--------------7-9-11--------------------------------|
A-------6-8-10---------------------------------------|
E-5-7-9----------------------------------------------|


E-------------------------------------------------------2-5-5s11-10--|
B------3-3---------s3-3-5-3-5h6p5p3-5-----3-3-------3h4--------------|
G----------3-3-2-2----------------------------3-3-2------------------|
D--0-0--------------------------------0-0----------------------------|
A--------------------------------------------------------------------|
E--------------------------------------------------------------------|


E------------------------------------------------------5--|
B--------3s1----------1-1---------------------------7--5--|
G----2-3-----2~-3p2p0-2-0---8---10---8--8--7--7--6--7--6--|
D--5------------------------8----8---8--6--6--6--7--7--7--|
A--------------------------10---10--10--8--8--7--7--5--7--|
E---------------------------8--------8-----6-----5-----5--|

6x each i think
E-----|-----|-----|--5-5-5-5-5-5-5-5-5-5-5-5-5--|
B---3-|---5-|---6-|--5-5-5-5-6-6-6-6-8-8-8-8-6--|
G---2-|---4-|---5-|--5-5-5-5-7-7-7-7-5-5-5-5-7--|
D-0---|-0---|-0---|--5-5-5-5-7-7-7-7-7-7-7-7-7--|
A-----|-----|-----|--5-5-5-5-5-5-5-5-5-5-5-5-5--|
E-----|-----|-----|-----------------------------|


E--6----------------5-----------------------------------------|
B--6--------5-6s8-5-5--------------------3-1-----5-6-6s8-6-5--|
G--7--5s3-2-5-------6--7-5p4-5p4-2p0-----3---3-2-5------------|
D--8--------5-------7----------------5^--3-------5------------|
A--8--------3-------7--------------------1--------------------|
E--6----------------5-----------------------------------------|


E------------------|-------------------|
B-1-0-1-3-4-3-4-6--|----3-1------------|
G-2-1-2-4-5-4-5-7--|--------3-2-0------|
D------------------|--------------3-2--|
A------------------|--1----------------|
E------------------|-------------------|


E-----------3h5s6------------6h8s9---------------9h11s12--10--|
B-5p3---3h5--------8p6---6h8--------11p9----9h11--------------|
G-----5----------------8-----------------11-------------------|
D-------------------------------------------------------------|
A-------------------------------------------------------------|
E-------------------------------------------------------------|

3x
E----------------------------------------------------5--------|
B--------3-------------2--------------5------------6---7------|
G--0-3-2---0-3-2---2-1-----2-1----5-4-----5-4----7-------8----|
D----------------4-------4-----s7-------7-----s8-----------5--|
A-------------------------------------------------------------|
E-------------------------------------------------------------|


E----------------------------------------------------5-----------5-|
B--------3-------------2--------------5------------6---7-------7---|
G--0-3-2---0-3-2---2-1-----2-1----5-4-----5-4----7-------8-5-8-----|
D----------------4-------4-----s7-------7-----s8-------------------|
A------------------------------------------------------------------|
E------------------------------------------------------------------|


E--8p5-------11p8--------14p11----------17p14-----------|
B------7p4--------10p7---------13p10----------16p13-----|
G----------5-----------8-------------11-------------14--|
D-------------------------------------------------------|
A-------------------------------------------------------|
E-------------------------------------------------------|

[ Tab from: http://www.guitartabs.cc/tabs/t/the_living_end/closing_in_tab_ver_3.html ]
E-----------------------------------------------------------------------------|
B-12^-12-12v------------------------------------------------------------------|
G-12^-12-12vp10----10---------------------------------------------------------|
D---------------12----12-12--10-12p10----10-------------------10-12p10----10--|
A-------------------------------------12----12s10--8-10-12-13----------12-----|
E-----------------------------------------------------------------------------|


E----------------------------------------------------------------|
B----------------------------------------------------------------|
G----10-13p10----10-12-12-12--12^-13-13p12p10-12-10--------------|
D-13----------12-------------------------------------10^v-12-----|
A------------------------------------------------------------10--|
E----------------------------------------------------------------|


E-------------------------------------------------------------|
B-10^---------------------------------------------------------|
G-10^---------------------------------------------------------|
D-------------------10-12-12^v-10h12p10-10--------------------|
A-----12-(12)-12-12------------------------12s10-8---------8--|
E--------------------------------------------------10p8-10----|


E-s17-13--------------------------------------------------------------|
B--------15-------------11p10p8---------10p9p7------------------------|
G-----------14-13--14s----------11p10p8--------10p9p7-10p9p7-9p7s6-7--|
D---------------------------------------------------------------------|
A---------------------------------------------------------------------|
E---------------------------------------------------------------------|

                 3x
E--------------|--------------------|
B--------------|--------------------|
G--12p10----10-|-12-10-12p10----10--|
D--------12----|-------------12-----|
A--------------|--------------------|
E--------------|--------------------|

                       3x
E--------------------|---------------------|
B--------------------|---------------------|
G--13p10----10-10-10-|--13p10----10-13-10--|
D--------12----------|--------10-----------|
A--------------------|---------------------|
E--------------------|---------------------|


E--------------------|------------------------------------------------|
B--------------------|------------------------------------------------|
G--14p10----10-10-10-|--14p10----10-14-10-14p10----10-14-10-14p10-12--|
D--------12----------|--------12----------------12--------------------|
A--------------------|------------------------------------------------|
E--------------------|------------------------------------------------|


E--------------------------------------------------13----15^-15^-15^p13---------|
B--------------------------------13----------13s15----13----------------15-15s--|
G-----10-12p10----10-12p10-12s14----12------------------------------------------|
D-s12----------12----------------------12-15------------------------------------|
A-------------------------------------------------------------------------------|
E-------------------------------------------------------------------------------|


E------15-----15-----15-----15---------------|
B--15^----15^----15^----15^----15^p13-15-13--|
G--------------------------------------------|
D--------------------------------------------|
A--------------------------------------------|
E--------------------------------------------|


E--s13-13-13-15^-15^p13----13--------|
B--s13-13-13------------15----15-15--|
G------------------------------------|
D------------------------------------|
A------------------------------------|
E------------------------------------|


E--12-15p13p12-13p12----12---------------------------------------|
B--------------------15----15p13p12-13p12----12------------------|
G-----------------------------------------14----14p12----12-14s--|
D-----------------------------------------------------14---------|
A----------------------------------------------------------------|
E----------------------------------------------------------------|


E-------------------|
B----3-1------------|
G--------3-2-0------|
D--------------3-2--|
A--1----------------|
E-------------------|



E-----------3h5s6------------6h8s9---------------9h11s12--10--|
B-5p3---3h5--------8p6---6h8--------11p9----9h11-----------x--|
G-----5----------------8-----------------11----------------9--|
D---------------------------------------------------------10--|
A----------------------------------------------------------9--|
E-------------------------------------------------------------|



E----------------------------------|
B------3-3---------s3-3-5-3-5^vp3--|
G----------3-3-2-2-----------------|
D--0-0-----------------------------|
A----------------------------------|
E----------------------------------|

Those last two parts are the only ones that change, the rest is already there. I didn't do 
the last part but if u wanna sound like him improvise and go crazy.
Comments