The Living End - Black Cat Chords & Tabs

 

Black Cat Chords & Tabs

The Living End Chords & Tabs

Version: 1 Type: Tab

Black Cat Tab

   
-------------------------------------------------------------------------------
			    Black Cat - The Living End
-------------------------------------------------------------------------------
Tabbed by: kwik_e_mart_69
Email: thatwillneverhappen@hotmail.com

Great song by the best aussie band around..
my first tab..so give it a whirl..

Tuning:

Intro
------------------------------------------------------------------------------|
------------------------------------------------------------------------------|
-6----------------------------------------------------------------------------|
-6---2---------------then------------2--2---2---2-----------------------------|
-4---2-------------------------------2--2---2---2-----------------------------|
----- 0-------------------------------0--0---0---0----------------------------|

Verse Riff
------------------------------------------------------------------------------|
------------------------------------------------------------------------------|
------------------------------------------------------------------------------|
------------------------------------------------------------------------------|
--444444----------------------------------------------------------------------|
----------4h6-000000---4h6----------------------------------------------------|
[ Tab from: http://www.guitartabs.cc/tabs/t/the_living_end/black_cat_tab.html ]
Pre-Chorus
---0----------------------------------------------------------------------|
---0----------------------------------------------------------------------|
---1----------------------------------------------------------------------|
---2----x4----------------------------------------------------------------|
---2----------------------------------------------------------------------|
---0----------------------------------------------------------------------|

Chorus
-------------------------------------------------------------------------------|
-------------------------------------------------------------------------------|
---66666666----------------------------------- 2-4-6-8-------------------------|
---66666666--2222222------------different bit----2-4-6-8-----------------------|
---44444444--2222222--------------------------0-2-4-6--------------------------|
--------------0000000----------------------------------------------------------|

Break down
-----------------------------------------------------------------------------|
-----------------------------------------------------------------------------|
-----------------------------------------------------------------------------|
-------------------X4--then------------------------------------------X4------|
---------4--------------------0000---3p2-0------------3p2-0------------------|
--0--4h6-------------------------------------3--0000----------3--------------|

-----------------------------------------------------------------------------|
-----------------------------------------------------------------------------|
-----------------------------------------------------------------------------|
---5/7/9---------------then--------------------------------------------------|
---5/7/9-----X4-------------000000-----------------------x3 Drum solo--------|
---3/5/6----------------------------4h6-000000---4h6-------------------------|


Then its back to the chorus and then the end of the song..have a listen and u will figure it out.
Any questions...feel free to ask


| /  slide up
| \  slide down
| h  hammer-on
| p  pull-off
| ~  vibrato
| +  harmonic
| x  Mute note
===============================================================================