The Living End - All Torn Down Chords & Tabs

 

All Torn Down Chords & Tabs

The Living End Chords & Tabs

Version: 2 Type: Tab 0 ratings
1 star 2 stars 3 stars 4 stars 5 stars
comments

All Torn Down Tab

   
                   - THE LIVING END -
                     All Torn Down
                Tabbed By Michael Fryar
                  manumick20@yahoo.com


^=bend
s=slide


Intro:  

  C#m                        
e---------------------------------------------------|
b---------5-----------------5-----------------5-----|
g-----6-------6---------6-------6---------6-------6-|
d---6---6---6---------6---6---6---------6---6---6---|
a-4-------------------------------------------------|
e----------------4-5---------------5-4--------------|
 / p a l m     m u t e d...........................

  G#
e--------------|
b--------4-----|
g----5-------5-|
d------6-------|(x2)
a----------6---|
e-4------------|
  ............\


  C#m                        
e---------------------------------------------------|
b---------5-----------------5-----------------5-----|
g-----6-------6---------6-------6---------6-------6-|
d---6---6---6---------6---6---6---------6---6---6---|
a-4-------------------------------------------------|
e----------------4-5---------------5-4--------------|
 
  G#
e--------------|
b--------4-----|
g----5-------5-|
d------6-------|(x2)
a----------6---|
e-4------------| *on the last time just strum a G# chord*
 
  C#                      A
e--------------------------------5-5-------------|
b-------------------------------5----------------|
g-6-6--6--6--------------------6-----------------|
d-6-6--6--6--6-6-4-4------7---7------7--8^-8^-6--|(x2)
a-4-4--4--4----------7-7--7--7-------7-----------|
e-------------------------5-5--------5-----------|




Verse: *upwards ska strum pattern*

  C#m
e--4-4-4-4-4-4-4-4--5-5-5-5-5-5-5-5--|
b--5-5-5-5-5-5-5-5--5-5-5-5-5-5-5-5--|
g--6-6-6-6-6-6-6-6--6-6-6-6-6-6-6-6--|
d--6-6-6-6-6-6-6-6--7-7-7-7-7-7-7-7--|(x2)
a--4-4-4-4-4-4-4-4--7-7-7-7-7-7-7-7--|
e-------------------5-5-5-5-5-5-5-5--|

   E                G#
e---------0-0--------------------|
b--------0---0-------------------|
g-------1-----1------------------|
d--2---2-------2----6-6-6-6-6-6--|
a--2--2---------2---6-6-6-6-6-6--|
e--0-0-----------0--4-4-4-4-4-4--|
                   /palm muted.\

Repeat from start of verse again.


Chorus:  (smaller letters are notes)

  E - G#
  A - B - E

   E           G#
e---------0-0-----------------|
b--------0--0-----------------|
g-------1---1-----------------|
d--2---2----2--6-6-6-6-6-6-6--|
a--2--2-----2--6-6-6-6-6-6-6--|
e--0-0------0--4-4-4-4-4-4-4--|
               /palm muted..\

  A
e-----------0---------------------------0-----------------|
b-----------0---------------------------0-----------------|
g-2-2--4-4--1-----------------2-2--4-4--1----9---8---7---6|
d-2-2--4-4--2------0-2^-0-----2-2--4-4--2-----------------|
a-0-0--2-2--2--0-2--------2---0-0--2-2--2--7---6---5---4--|
e-----------0---------------------------0-----------------|
  all torn down...

  A    B    C#
e--------------|
b--------------|
g-2-2--4-4--6--|
d-2-2--4-4--6--|
a-0-0--2-2--4--|
e--------------|


Verse 

Chorus


Pre Solo:   
[ Tab from: http://www.guitartabs.cc/tabs/t/the_living_end/all_torn_down_tab_ver_2.html ]
   C#     A      B
e---------------------------------4----------4-4-4--|
b--------------------------------5-----------4-4-4--|
g--6-6-6--2-2-2--4-4-4------6---6---6--------5-5-5--|
d--6-6-6--2-2-2--4-4-4-(x2)-6--6----6--6-6-6-6-6-6--|
a--4-4-4--0-0-0--2-2-2------4-4-----4--6-6-6-6-6-6--|
e--------------------------------------4-4-4-4-4-4--|


Solo:

e----------------------------------------|
b----------------------------------------|
g---6-4------------6-4---------------6-4-|
d-------6-7-6-4--------6-7-6-4-----------|
a-4------------7-4-------------7---------|
e----------------------------------5-----|


e----------------------------------------------------|
b----------------------------------------------------|
g---------------------------------------4~-4-6-6-6-6-|
d-6-7-6-4-6-7-6-4-7-6-4-7-6-4-----7-6-7--------------|
a-------------------------------4--------------------|
e----------------------------------------------------|


e------------------4-5-7--9-7-9-11-12-11~-|
b------4-5-7-4-5-7------------------------|
g---4-6-----------------------------------|
d-----------------------------------------|
a-----------------------------------------|
e-----------------------------------------|

e-9~-----9h(11)-9h(11)---(9()9)-----------------------------|
b----9~--9--(9)----(9)-9-----9----------10-9-----10-9----10-|
g----------------------------9----------9--9----9---9----9--|
d------------------------------11-11-9-11----11-------11----|
a-----------------------------------------------------------|
e-----------------------------------------------------------|


e---------------------------9------------------------------------|
b-9---10p9---9-10-9--10------12-9--------------------------------|
g-9----9p9----9-9-9---9-----------11-9----11-9------11-11-11-----|
d---11-----11-----------11-------------11------11-9----------11-9|
a----------------------------------------------------------------|
e----------------------------------------------------------------|


e----------------------------------------------------|
b-------------------------------------7-7-7-9-9-9-10-|
g-------------------------------------x-x-x-x-x-x-x--|
d-11-11-9-11-11-11s9-9-9-9s7-7-7-7s6--4-4-4-6-6-6-7--|
a----------------------------------------------------|
e----------------------------------------------------|

Verse

Intro to Chorus

Chorus

Pre Solo


Bridge: 

   B
e-----------------------------------|
b-----------------------------------|
g--4-4-4-4-4-4-4-4-4-4-4-4-x-x-4-4--|
d--4-4-4-4-4-4-4-4-4-4-4-4-x-x-4-4--|
a--2-2-2-2-2-2-2-2-2-2-2-2-x-x-2-2--|
e-----------------------------------|

   G
e--3-3-3-3-3-3-3-3-3-3-3-3-3-3-3--|
b--0-0-0-0-0-0-0-0-0-0-0-0-0-0-0--|
g--0-0-0-0-0-0-0-0-0-0-0-0-0-0-0--|
d--0-0-0-0-0-0-0-0-0-0-0-0-0-0-0--|(x2)
a--2-2-2-2-2-2-2-2-2-2-2-2-2-2-2--|
e--3-3-3-3-3-3-3-3-3-3-3-3-3-3-3--|


Outro: 

 C#m                        
e---------------------------------------------------|
b---------5-----------------5-----------------5-----|
g-----6-------6---------6-------6---------6-------6-|
d---6---6---6---------6---6---6---------6---6---6---|
a-4-------------------------------------------------|
e----------------4-5---------------5-4--------------|
 
  G#
e--------------|
b--------4-----|
g----5-------5-|
d------6-------|(x2)
a----------6---|
e-4------------|

 Cm
E-4-|
B-5-|
G-6-|
d-6-|
A-4-|
e---|
 

   
Comments