The Line - D-term Nation Chords & Tabs

 

D-term Nation Chords & Tabs

The Line Chords & Tabs

Version: 1 Type: Tab 0 ratings
1 star 2 stars 3 stars 4 stars 5 stars
comments

D-term Nation Tab

http://www.sequencemagazine.com/line.html

INTRO & VERSE 
(3x) 
>e-|---------------------------------|---------------------------------| 
>B-|---------------------------------|---------------------------------| 
>G-|---------------------------------|---------------------------------| 
>D-|-----2---2---2-----2-2-2-3-3-3-3-|---------------------------------| 
>A-|-----2---2---2-----2-2-2-3-3-3-3-|---------------------------------| 
>E-|-R---0---0---0---R-0-0-0-1-0-1-0-|-7p4-4-5p4-4-7p4-4-5p4-4-1p0-1p0-| 
(other guitar) 
>e-|-0---0---0---0---0---0---0---0---|---------------------------------| 
>B-|-3/5-5---5---5---5---5---6p5-6p5-|---------------------------------| 
>G-|---------------------------------|---------------------------------| 
>D-|---------------------------------|---------------------------------| 
>A-|---------------------------------|---------------------------------| 
>E-|---------------------------------|---------------------------------| 

NEXT PART 
>e-|---------------------------------|---------------------------------| 
>B-|---------------------------------|---------------------------------| 
>G-|---------------------------------|-----2---2---2-------4-----------| 
>D-|-----2---2---2-------5---3-3-3-3-|-----2---2---2-------4-----------| 
>A-|-----2---2---2-------5---3-3-3-3-|-----0---0---0---R---2---8p7-8p7-| 
>E-|-R---0---0---0---R---3---1-0-1-0-|-R-------------------------------| 

...NEXT PART 
>e-|--------------------------------|---------------------------------|---------------------------------|--------------------------------| 
>B-|--------------------------------|---------------------------------|---------------------------------|--------------------------------| 
>G-|--------------------------------|---------------------------------|---------------------------------|-------------------------(mute)-| 
>D-|------------------------7---7---|-------------------------2-------|-------------------------7-7-7-7-|-------------------------9-9-9-9| 
>A-|7p0-0-5p0-0-4p0-0-5p0-0---------|-7p0-0-5p0-0-4p0-0-5p0-0-2-------|-7p0-0-5p0-0-4p0-0-5p0-0---------|-7p0-0-5p0-0-4p0-0-5p0-0-7-7-7-7| 
>E-|--------------------------------|-------------------------0-------|---------------------------------|--------------------------------| 

CHORUS 
(we'd like to seize this opportunity...) 
>e-|---------------------------------|---------------------------------| 
>B-|---------------------------------|---------------------------------| 
>G-|---------------------------------|---------------------------------| 
>D-|----*9------*9------*9------*9---|----*9------*9--------------*9---| 
>A-|-7-7-----7-7-----7-7-----7-7-----|-----------------0-0*7---0-0-----| 
>E-|---------------------------------|-7-7-----7-7---------------------| 
[ Tab from: http://www.guitartabs.cc/tabs/t/the_line/d_term_nation_tab.html ]
last time (to next part) 
>e-|---------------------------------|---------------------------------| 
>B-|---------------------------------|---------------------------------| 
>G-|---------------------------------|---------------------------------| 
>D-|----*9------*9------*9------*9---|----*9------*9-----------711---9-| 
>A-|-7-7-----7-7-----7-7-----7-7-----|-----------------0-0*7---711---9-| 
>E-|---------------------------------|-7-7-----7-7-------------5-9---7-| 

NEXT PART 
(all our time spent working hard) (see chorus for lead-in) 
>e-|--------------------------------|---------------------------------|---------------------------------| 
>B-|--------------------------------|---------------------------------|---------------------------------| 
>G-|--------------------------------|---------------------------------|--------------------------------| 
>D-|----9---9-9-911---7-7---711---9-|-----9-------9-------9--------11-|---7-7-------7------7------------| to solo 
>A-|----9---9-9-911---7-7---711---9-|-----9---9-9-9---9-9-9---9-9-911-|---7-7---7-7-7--7-7-7---7-7-7-7--| 
>E-|----7---7-7-7-9---5-5---5-9---7-|-----7---7-7-7---7-7-7---7-7-7-9-|---5-5---5-5-5--5-5-5---5-5-5-5--| 

GUITAR SOLO (played over verse chords) 
(notes picked repeatedly until %) 
>e-|---------------------------------|---------------------------------|---------------------------------%----------------------| 
>B-|---------------------------------|---------------------------------|---------------------------------%--b-----b-------------| 
>G-|-----9-----------------10-9-10-9-|-9---------------------10-9-10-9-|12----14----16--14----12----1112-%-14----14--14----9----| 
>D-|---------------------------------|---------------------------------|---------------------------------%----------------------| 
>A-|---------------------------------|---------------------------------|---------------------------------%----------------------| 
>E-|-R-------------------------------|---------------------------------|---------------------------------%----------------------|...

>e-|---------------------------------|---------------------------------|---------------------------------|----------------------| 
>B-|---------------------------------|---------------------------------|---------------------------------|----------------------| 
>G-|---------------------------------|---------------------------------|---------------------------------|----------------------| 
>D-|---------------------------------|---------------------------------|---------------------------------|----------------------| 
>A-|-7---------------9---------------|10-------------12----------------|14----12----14--10------------12-|14\-------------------| 
>E-|---------------------------------|---------------------------------|---------------------------------|----------------------|

-------------------------------------------------------------------------------
Comments