The Lillingtons - One Armed Man Chords & Tabs

 

One Armed Man Chords & Tabs

The Lillingtons Chords & Tabs

Version: 1 Type: Tab

One Armed Man Tab

   
-------------------------------------------------------------------------------
			     One Armed Man - The Lillingtons
-------------------------------------------------------------------------------
Tabbed by: Phantom Maggot

Tuning: Standard


Intro:
e|----------------------|
B|----------------------|
G|----------------------|
D|--8/99999-------------| (x4)
A|--6/77777-------------|
E|----------------------|

Verse:
e|------------------------------------|
B|------------------------------------|
G|------------------------------------|
D|--99999999--------------------------| (x4)
A|--77777777----5555----9999----------|
E|--------------3333----7777----------|
[ Tab from: http://www.guitartabs.cc/tabs/t/the_lillingtons/one_armed_man_tab.html ]
Chorus:
e|-------------------------------------------------------|
B|-------------------------------------------------------|
G|-------------------------------------------------------|
D|--9999----7777------------5555--(x3)----9999-----------|
A|--7777----5555----5555----3333----------7777----9999---|
E|------------------3333--------------------------7777---|

Thing Over Last Chorus:
e|-------------------------------------------|
B|--8----8----8----8----8----8----10---------|
G|----7-----7----7----7----7----7-----7------|
D|-------------------------------------------|
A|-------------------------------------------|
E|-------------------------------------------|


| /  slide up
| \  slide down
| h  hammer-on
| p  pull-off
| ~  vibrato
| +  harmonic
| x  Mute note

www.thelillingtons.com