The Like - You Bring Me Down Chords & Tabs

 

You Bring Me Down Chords & Tabs

The Like Chords & Tabs

Version: 1 Type: Bass Tab

You Bring Me Down Bass Tab

Band - The Like
Song - You Bring Me Down
Album - Are You Thinking What I'm Thinking?
Track - 3
Bassist - Charlotte Froom

I'm not sure about the chorus, as it's very hard to hear the bass. I messed about with
for ages, and that's the best I could get. Corrections welcomed for it!

Update - June 3rd - I've made a small change to the chorus. I'm still not sure it's 
but it sounds better than it did now.

No bass in Intro

Verse 1
G-----------------------------------------9h11-9--------------|
D-------------------------------------------------------------|
A-0---0---0---14h16-14~~~---10h12-10~~~-----------0---0---0---|
E-------------------------------------------------------------| x2

Prechorus 1
G------------------------------------------------------------------------|
D---9-7-7--9-9-7-7--9-9-7-7--9-9-7-7--9-9-7-7--5-5-4-4-2-2~~-------------|
A----------------------------------------------------------------0---0---|
E------------------------------------------------------------------------|

G-----------------------------------------------------------------------------|
D---9-7-7--9-9-7-7--9-9-7-7--9-9-11-9-7--9-9-7-7--5-5-4-4-12-14~~-------------|
A----------------------------------------------------------------0---0---0----|
E-----------------------------------------------------------------------------|

Chorus
G-13-13-13-13-13-13----------------------------------7/9/11-13-|
D-------------------9h11~---------------------7h9~-------------|
A---------------------------2/4/7-9-9-9-9-9-9------------------|
E--------------------------------------------------------------| x2

G-13-13-13-13-13-13-------------------------------------------|
D-------------------9h11~----11-11-11-----------------7h9~~~--|
A-------------------------------------7-8-9-9-9-9-9-9---------|
E-------------------------------------------------------------| x1
[ Tab from: http://www.guitartabs.cc/tabs/t/the_like/you_bring_me_down_btab.html ]
Interlude
G----------------------------------------------------------------------------|
D----------------------------------------------------------------------------|
A----------------------------------------------------------------------------|
E-5---5---0-5-0-5---0---5---5---0-5-0-5--0---5---5---0-5-0-5--0---5---5---5--|

Verse 2
G-----------------------------------------9h11-9--------------|
D-------------------------------------------------------------|
A-0---0---0---14h16-14~~~---10h12-10~~~-----------0---0---0-0-|
E-------------------------------------------------------------|

G-----------------------------------------9h11-9--------------|
D-------------------------------------------------------------|
A-0---0---0---14h16-14~~~---10h12-10~~~-----------0---0-0-0-0-|
E-------------------------------------------------------------|

Prechorus 2
G----------------------------------------------------------------------------|
D---9-7-7--9-9-7-7--9-9-7-7--9-9-11-9-7--9-9-7-7--5-5-4-4-2-2~~--------------|
A----------------------------------------------------------------0---0---0-0-|
E----------------------------------------------------------------------------|

G---------------------------------------------------------7p6----------------------------------|
D---9-7-7--6-6-4-4--2-2-0-0--------------------------------------------------------------------|
A---------------------------4-2-0---------------0-2-5------------0---0---0---0---0---0---0---0-|
E---------------------------------3-2-3---3---3------------------------------------------------|

Chorus: as before
Interlude: as before

Ending
G------------------------------------------------------------------------|
D-------------7---7-------------7-5---------------------7----------------|
A-0---0---7/9---9---0-0-0-0-7/9-----7-0---0---0-0-7/9--------------0---0-|
E----------------------------------------------------------3---3---------|

G------------------------------------------------------------------------|
D-------------7---7-------------7-5---------------------7----------------|
A-0-0-0-0-7/9---9---0-0-0-0-7/9-----7-0-0-0-0-0-0-7/9--------------0~----|
E----------------------------------------------------------3-3-3-3-------|

G------------------|
D------------------|
A---------0~~~~----|
E-3---3------------|