The Like - What I Say And What I Mean Chords & Tabs

 

What I Say And What I Mean Chords & Tabs

The Like Chords & Tabs

Version: 1 Type: Bass Tab

What I Say And What I Mean Bass Tab

   
Band - The Like
Song - What I Say and What I Mean
Album - Are You Thinking What I'm Thinking?
Track - 2
Bassist - Charlotte Froom

Update: June 3rd - made slight alteration to the pre-chorus.

Intro
G--------------------------------------------------------|
D--------------------------------------------------------|
A-4-4-4-4-4--2--4-4-4-4-4--2--4-4-4-4-4--2--4-4-4-4-4--6-|
E--------------------------------------------------------| x1

Verse
G-------------------------------------------------------------|
D-------------------------------------------------------------|
A-7-7-7-7-7-7-7-7-2-2-2-2-2-2-2-2-4-4-4-4-4--2--4-4-4-4-4--6--|
E-------------------------------------------------------------| x4

Pre Chorus "But I know you're the only one for me..."
G-13~~~----------------12~~~-------------------11~~~-------------------t*~~~----------------------------------------------------------|
D-------------------------------------------------------------------------------------------------------------------------------------|
A-------------------------------------------------------------------------------------------------------------------------------------|
E-12-12-12-12-12-12-12-11-11-11-11-11-11-11-11-10-10-10-10-10-10-10-10-9-9-9-9-9-9-9-7-7-7-7-7-7-7-7-6-6-6-6-6-6-6-6-5-5-5-5-5-5-5-5--|

Play the notes on the G string together with the E string.
t = 10

x1
[ Tab from: http://www.guitartabs.cc/tabs/t/the_like/what_i_say_and_what_i_mean_btab.html ]
Chorus "Never going back and forth..."
G-----------------------------------------------------------------|
D-----------------------------------------------------------------|
A-------------------0-0-0-0-0-0-0-0-2-2-2-2-2-2-2-2-2-2-2-2-2-2-2-|
E-3-3-3-3-3-3-3-3-3-----------------------------------------------| x2

End of Chorus
G-----------------------------------------------------------------|
D-----------------------------------------------------------------|
A-4-4-4-4-4-4-4-4-7-7-7-7-7-7-7-7-2-2-2-2-2-2-2-2-2-2-2-2-2-2-2-2-|
E-----------------------------------------------------------------| x2

Pre Verse
G----------------------------|
D----------------------------|
A-4-4-4-4-4--2--4-4-4-4-4--6-|
E----------------------------| x1

Verse

Pre Chorus

Chorus

End of Chorus

Last Chorus
G-----------------------------------------------------------------|
D-----------------------------------------------------------------|
A-------------------0-0-0-0-0-0-0-0-2-2-2-2-2-2-2-2-2-2-2-2-2-2-2-|
E-3-3-3-3-3-3-3-3-3-----------------------------------------------| x1

G-----------------------------------------------------------------|
D-----------------------------------------------------------------|
A-------------------0-0-0-0-0-0-0-0-2-2-2-2-2-2-2-2-2-2-2-2-0-----|
E-3-3-3-3-3-3-3-3-3-------------------------------------------3-0-| x2

G-----------------------------------------|
D-----------------------------------------|
A-------------------0-0-0-0-0-0-0-0-2~~~~-|
E-3-3-3-3-3-3-3-3-3-----------------------| x1