The Like - We Are Lost Chords & Tabs

 

We Are Lost Chords & Tabs

The Like Chords & Tabs

Version: 1 Type: Bass Tab

We Are Lost Bass Tab

   
Band - The Like
Song - We Are Lost
Album - Are You Thinking What I'm Thinking?
Track - 9
Bassist - Charlotte Froom

Quite a few changes in this, hence i've tabbed it from start to finish

G--------------------------------------------------------------|
D-------------7-9--11-12-17---16-14---11-9-7-------------------|
A------0-2-5----------------------------------9-7-9---4-2-0----|
E--3---------------------------------------------------------2-| x2

G---------------------------------------------------|
D---------------------------------------------------|
A-------9-----7-----9-----10-----9-----7-----9----9-|
E-3-------------------------------------------------|

G-----------------------------------------|
D-----------------------------------------|
A-10----10-9----9-7----7-9-----0-2-5---12-|
E-----------------------------------------|

G-----------------------------------------|
D-----------------------------------------|
A-10----10-9----9-7----7-9-----0-2-5---7--|
E-----------------------------------------|

G-----------------------------------------|
D-----------------------------------------|
A-8-8-8-8-8-8-8-8-10-10-10-10-10-10-10-10-|
E-----------------------------------------|

G-----------------------------------------|
D-----------------------------------------|
A-12-12-12-12-10-10-10-10-9-9-9-9-7-7-7-7-|
E-----------------------------------------|

G-----------------------------------------|
D-----------------------------------------|
A-8-8-8-8-8-8-8-8-10-10-10-10-10-10-10-10-|
E-----------------------------------------|

G------------------------------|
D------------------------------|
A-2---2---2-4-5--4---4---4-5-7-|
E------------------------------|

G-----------------|
D-----------------|
A-5-5-5-5-5-5-5-5-| etc
E-----------------|
[ Tab from: http://www.guitartabs.cc/tabs/t/the_like/we_are_lost_btab.html ]
G-------------------------------------------------|
D-------------------------------------------------|
A-2---2---2-2--2-------------------------------0~-|
E----------------2---2---2-2--2-0---0---0-0--0----|

G-------------------------------------------------------------|
D-------------------------------------------------------------|
A-10----9-----7-----9-----10-----9-----7-----9-----0-2-5---12-|
E-------------------------------------------------------------|

G-----------------------------------------|
D-----------------------------------------|
A-10----10-9----9-7----7-9-----0-2-5---12-|
E-----------------------------------------|

G-----------------------------------------|
D-----------------------------------------|
A-10----10-9----9-7----7-9-----0-2-5---7--|
E-----------------------------------------|

G-----------------------------------------|
D-----------------------------------------|
A-8-8-8-8-8-8-8-8-10-10-10-10-10-10-10-10-|
E-----------------------------------------|

G-----------------------------------------|
D-----------------------------------------|
A-12-12-12-12-10-10-10-10-9-9-9-9-7-7-7-7-|
E-----------------------------------------|

G-----------------------------------------|
D-----------------------------------------|
A-8-8-8-8-8-8-8-8-10-10-10-10-10-10-10-10-|
E-----------------------------------------|

G------------------------------|
D------------------------------|
A-2---2---2-4-5--4---4---4-5-7-|
E------------------------------|

G-----------------|
D-----------------|
A-5-5-5-5-5-5-5-5-| etc
E-----------------|

G-------------------------------------------------|
D-------------------------------------------------|
A-2---2---2-2--2-------------------------------0~-|
E----------------2---2---2-2--2-0---0---0-0--0----|

G--------------------------------------------------------------|
D-------------7-9--11-12-17---16-14---11-9-7-------------------|
A------0-2-5----------------------------------9-7-9---4-2------|
E--3---------------------------------------------------------2-| x2

G------|
D------|
A------|
E-3~~~-

Phew!